Local H - Cool Magnet Chords & Tabs

 

Cool Magnet Chords & Tabs

Local H Chords & Tabs

Version: 1 Type: Tab 0 ratings
1 star 2 stars 3 stars 4 stars 5 stars
comments

Cool Magnet Tab

-------------------------------------------------------------------------------
			     SONG NAME - Band Name
-------------------------------------------------------------------------------
Tabbed by:
Email:

Tuning:drop d
[ Tab from: http://www.guitartabs.cc/tabs/l/local_h/cool_magnet_tab.html ]
e|---------------------------------------------------------------------------|
B|---------------------------------------------------------------------------|
G|---------------------------------------------------------------------------|
D|---------------------------------------------------------------------------|
A|-----------5-3-3-----------------------------------------------------------|
D|-0-0-5-6-7-------5-3-3-5(bend)---------------------------------------------|

e|---------------------------------------------------------------------------|
B|---------------------------------------------------------------------------|
G|--these-four-chords-are-played-during-the-song-not-this-order-or-timing----|
D|-3-0-1-5-------------------------------------------------------------------|
A|-3-0-1-5-------------------------------------------------------------------|
D|-3-0-1-5-------------------------------------------------------------------|
thats it. Im not going to even attempt the solo but use a whammy pedal and work
out the scale from the riff.
===============================================================================
Comments