Local H - California Songs Chords & Tabs

 

California Songs Chords & Tabs

Local H Chords & Tabs

Version: 1 Type: Tab 0 ratings
1 star 2 stars 3 stars 4 stars 5 stars
comments

California Songs Tab

   
Transcribed by: Cabrera444

Standard Tuning: E-A-D-G-B-E

This is my first tab =) I hope it sounds good and accurate. I love this song and this band.

Let ring = )))
Palm Mute = ...
bend = ~


Intro/Verse
|-------------------------------------------------|
|-------------------------------------------------|
|-8-8)))------------------------------------------|
|-8-8)))------------------------------------------|
|-6-6)))--------2-2---1-1---2-2---1-1-------------|
|---------2-2---------------------------2-2---1-1-|
          .......................................
the intro chord is heard thoughtout the whole song but Scott will once in a while skip 
so listen for that in the song.

Chorus
|---------------------------------------------------------------|
|---------------------------------------------------------------|
|-----------------4-4-4---3-3-3---4-4-4---3-3-3-----------------|
|-2-2-2---4-4-4---4-4-4---3-3-3---4-4-4---3-3-3---4-4-4---3-3-3-| play twice
|-2-2-2---4-4-4---2-2-2---1-1-1---2-2-2---1-1-1---4-4-4---3-3-3-|
|-0-0-0---2-2-2-----------------------------------2-2-2---1-1-1-|
...and here we go again

Verse
|-------------------------------------------------|
|-------------------------------------------------|
|-8-8)))------------------------------------------|
|-8-8)))------------------------------------------|
|-6-6)))--------2-2---1-1---2-2---1-1-------------|
|---------2-2---------------------------2-2---1-1-| play this 3 times
          .......................................   then,


|--------|                |-------------|
|--------|                |-------------|
|-8-8)))-|                |-------------|
|-8-8)))-|                |-------------|
|-6-6)))-|                |-------------|
|--------|                |-4---2---1~~-|
play this chord          ...is on the radio
with drums...
[ Tab from: http://www.guitartabs.cc/tabs/l/local_h/california_songs_tab.html ]
Chorus
|---------------------------------------------------------------|
|---------------------------------------------------------------|
|-----------------4-4-4---3-3-3---4-4-4---3-3-3-----------------|
|-2-2-2---4-4-4---4-4-4---3-3-3---4-4-4---3-3-3---4-4-4---3-3-3-|
|-2-2-2---4-4-4---2-2-2---1-1-1---2-2-2---1-1-1---4-4-4---3-3-3-|
|-0-0-0---2-2-2-----------------------------------2-2-2---1-1-1-|
...and here we go again

|-----------------------|
|-----------------------|
|-8-8-8-8-8-8-8-8-8-8-8-|
|-8-8-8-8-8-8-8-8-8-8-8-|
|-6-6-6-6-6-6-6-6-6-6-6-|
|-----------------------|
...AND FUCK NEW YORK TOO!


|---------------------------------------------------------------|---|
|---------------------------------------------------------------|---|
|-------------------------5-5-5-------------------6-6-6---4-4-4-|-6-|
|-2-2-2---4-4-4---2-2-2---5-5-5---2-2-2---4-4-4---6-6-6---4-4-4-|-6-|
|-2-2-2---4-4-4---2-2-2---3-3-3---2-2-2---4-4-4---4-4-4---2-2-2-|-4-|
|-0-0-0---2-2-2---0-0-0-----------0-0-0---2-2-2-----------------|---|
...Alright!  play this four                           repeat at end ^      times

Verse
|-------------------------------------------------|
|-------------------------------------------------|
|-8-8)))------------------------------------------|
|-8-8)))------------------------------------------|
|-6-6)))--------2-2---1-1---2-2---1-1-------------|
|---------2-2---------------------------2-2---1-1-|
play this twice

Chorus
|---------------------------------------------------------------|
|---------------------------------------------------------------|
|-----------------4-4-4---3-3-3---4-4-4---3-3-3-----------------|
|-2-2-2---4-4-4---4-4-4---3-3-3---4-4-4---3-3-3---4-4-4---3-3-3-|
|-2-2-2---4-4-4---2-2-2---1-1-1---2-2-2---1-1-1---4-4-4---3-3-3-|
|-0-0-0---2-2-2-----------------------------------2-2-2---1-1-1-|
play four times


Outro
|-------------------------------|
|-------------------------------|
|-----------------4-4-4---3-3-3-|
|-2-2-2---4-4-4---4-4-4---3-3-3-|
|-2-2-2---4-4-4---2-2-2---1-1-1-|  play 4 times
|-0-0-0---2-2-2-----------------|
Please no more california songs!

Verse
|-------------------------------------------------|
|-------------------------------------------------|
|-8-8)))------------------------------------------|
|-8-8)))------------------------------------------|
|-6-6)))--------2-2---1-1---2-2---1-1-------------|  play once
|---------2-2---------------------------2-2---1-1-|
...and fuck New York too

The end brothas!
Comments