Local H - California Songs Chords & Tabs

 

California Songs Chords & Tabs

Local H Chords & Tabs

Version: 2 Type: Bass Tab 0 ratings
1 star 2 stars 3 stars 4 stars 5 stars
comments

California Songs Bass Tab

California Songs - Local H
Tabbed By Aaron Soat (my second attempt, but 100% correct)
Standard Tuning


Intro/Verse

---------------------------------|
---------9-9-8-8-9-9-8-8---------|
-6-6-9-9-----------------9-9-8-8-|
---------------------------------|


Chorus

-----------------------------------------|
---------9-8-8-8-9-8-8-8-----------------|
-6-9-9-9-----------------9-9-9-9-8-8-8-8-|
-----------------------------------------|

Pre/Post Bridge
[ Tab from: http://www.guitartabs.cc/tabs/l/local_h/california_songs_btab_ver_2.html ]
-------------------------------------------------------|
-11-11-11-11-11-11-11-11-11-11-11-11-11-11-11-11-11-11-|
-------------------------------------------------------|
-------------------------------------------------------|

Bridge

---------------------------------------------|
-----------9-9-9---------11-11-11-11-9-9-9-9-|
-6-9-9-9-6-------6-9-9-9---------------------|
---------------------------------------------|


Sorry if both of these tabs are wrong, I tabbed them on a regular guitar, but I have yet 
try them on bass. This one seems 100% but if you have any questions/comments send me an 
at orgivemedeath12@yahoo.com - Soat
Comments