Local H - Bound For The Floor Chords & Tabs

 

Bound For The Floor Chords & Tabs

Local H Chords & Tabs

Version: 6 Type: Tab 0 ratings
1 star 2 stars 3 stars 4 stars 5 stars
comments

Bound For The Floor Tab

   
----------------------------------------------------------------------------
                        Bound for the Floor - Local H
----------------------------------------------------------------------------

Tabbed by: Tim
Email: hippopotamus7@cox.net

Tuning: eb Bb Gb Db Ab Eb  or  e B G D A E-- I have tabbed both.

Down 1/2 step;

Intro/Verse:
eb|------------------------------------------------------------------------|
Bb|------------------------------------------------------------------------|
Gb|---4-4-44--4-4-44--4-4-44--4-4-44------454------------------------------|
Db|---2-2-22--2-2-22--2-2-22--2-2-22---------------------------------------|
Ab|---0-0-00--3-3-33--x-x-xx--5-5-55---------------------------------------|
Eb|-------------------3-3-33-----------------------------------------------|

Bridge:
"And you don't..."
eb|------------------------------------------------------------------------|
Bb|------------------------------------------------------------------------|
Gb|------------------------------------------------------------------------|
Db|---2-22--5-55--------7-77-----------------------------------------------|
Ab|---0-00--3-33--5-55--5-55-----------------------------------------------|
Eb|---------------3-33-----------------------------------------------------|
[ Tab from: http://www.guitartabs.cc/tabs/l/local_h/bound_for_the_floor_tab_ver_6.html ]
Now, Standard Tuning;

Intro/Verse:
e|-------------------------------------------------------------------------|
B|-------------------------------------------------------------------------|
G|---3-3-33--3-3-33--3-3-33--3-3-33------343-------------------------------|
D|---1-1-11--1-1-11--1-1-11--1-1-11----------------------------------------|
A|---x-x-xx--2-2-22--x-x-xx--4-4-44----------------------------------------|
E|---4-4-44----------2-2-22------------------------------------------------|

Bridge:
"And you don't..."
e|-------------------------------------------------------------------------|
B|-------------------------------------------------------------------------|
G|-------------------------------------------------------------------------|
D|---------4-44--------6-66------------------------------------------------|
A|---6-66--2-22--4-44--4-44------------------------------------------------|
E|---4-44--------2-22------------------------------------------------------|

This a really good song. If you have it, put your amp on drive. Listen for
rhythm, and it will sound just like the record.


| /  slide up
| \  slide down
| h  hammer-on
| p  pull-off
| ~  vibrato
| +  harmonic
| x  Mute note

 Carpe Yesterday --Tim
============================================================================
Comments