Local H - Bound For The Floor Chords & Tabs

 

Bound For The Floor Chords & Tabs

Local H Chords & Tabs

Version: 1 Type: Tab 0 ratings
1 star 2 stars 3 stars 4 stars 5 stars
comments

Bound For The Floor Tab

#----------------------------------PLEASE NOTE---------------------------------#
#This file is the author's own work and represents their interpretation of the #
#song. You may only use this file for private study, scholarship, or research. #
#------------------------------------------------------------------------------#

From: BURTTIOMAN [BURTTIOMAN@aol.com]
Sent: Friday, January 16, 1998 11:14 PM
To: Guitar@olga.net
Subject: TAB: bound for the floor by Local H

**********************************************************************
BAND: Local H
ALBUM: As Good As dead
SONG: Bound For the Floor                  *Kudos to Tom Worboys
TRANSCRIBER: Chi-Chi Hernando - BURTTIOMAN       for the lyrics
**********************************************************************
I didn't include the exact
timing, but hopefully the spacing of the chords will help.  You
don't have to be smarter than the average bear to figure the way
it goes.  Also, this song sounds just as good acoustic.
Anyway, here it is folks.......

(Standard tuning sounds just fine)

Intro/Verse/Outro(clean):
|---------------------------------------------------------------|
|--5--5--5-5--5--5-5--5-5-5-5--5--5--5-5--5--5-5----------------|
|--4--4--4-4--4--4-4--4-4-4-4--4--4--4-4--4--4-4--4/5/4-0-------|
|--2--2--2-2--2--2-2--2-2-2-2--2--2--2-2--0--0-0--0-0-0-0-------|
|--0--0--0-0--3--3-3--3-3-3-0--x--x--x-x----------------0-------|
|------------------------------3--3--3-3------------------------|

Pre-Chorus(big-time distortion):
|---------------------------------------------------------------|
|--2--2--2-2----------------------------------------------------|
|--2--2--2-2-----5--5-5-5-----------------------7--7-7----------|
|--2--2--2-2-----5--5-5-5-----------5--5--5-5/--7--7-7----------|
|--0--0--0-0--2--3--3-3-3--2h3-2-0--5--5--5-5/--5--5-5--2-3-2---|
|-----------------------------------3--3--3-3-----------------3-|

Chorus:
    x9    x8    x8    x8
|--5--5/-8---8/3--3/10--10----------------------------|
|--5--5/-8---8/3--3/10--10----------------------------|
|--6--6/-9---9/4--4/11--11----------------------------|
|--7--7/10--10/5--5/12--12----------------------------|
|--7--7/10--10/5--5/12--10----------------------------|
|--5--5/-8---8/3--3/10--10----------------------------|

Solo Part(distortion)x4:
|---------------------------------------------------------------|
|---------------------------------------------------------------|
|--4----4--2--4b(3/4)-(4)--2---4--------------------------------|
|---------------------------------------------------------------|
|---------------------------------------------------------------|
|---------------------------------------------------------------|
[ Tab from: http://www.guitartabs.cc/tabs/l/local_h/bound_for_the_floor_tab.html ]
**When playing the intro, use your pinky to fret the B string at
the 5th fret, 4th finger on the G string at the 4th fret, and
your pointer finger on the D string at the 2nd fret. Then, when
you play 3rd frets on the A and E strings use your middle finger.

LYRICS/STRUCTURE:

INTRO
Born to be down
Learned all my lessons before now
Born to be down
I think you'll get used to it

And you just don't get it you keep it copacetic
And you learn to accept it you know it's so pathetic
And you just don't get it you keep it copacetic
And you learn to accept it you know it's so pathetic

PRE-CHORUS
And you don't
And you don't
And you don't
And you don't


VERSE
Born to be down
I think that I've said this before now
Born to be down
What good is confidence?

And you just don't get it you keep it copacetic
And you learn to accept it you know it's so pathetic
And you just don't get it you keep it copacetic
And you learn to accept it you know it's so pathetic


PRE-CHORUS
And you don't
And you don't
And you don't
And you don't

CHORUS
And you just don't get it you keep it copacetic
And you learn to accept it you know it's so pathetic
And you just don't get it you keep it copacetic
And you learn to accept it you know it's so pathetic

And you just don't get it you keep it copacetic
And you learn to accept it you know it's so pathetic
And you just don't get it you keep it copacetic
And you learn to accept it you know it's so pathetic

SOLO PART
And you don't
And you don't
And you don't
And you don't

(two parts sung together according to Tom)
And you don't   And you just don't get it you keep it copacetic
And you don't   And you learn to accept it you know it's so pathetic
And you don't   And you just don't get it you keep it copacetic
And you don't   And you learn to accept it you know it's so pathetic

CHORUS
And you just don't get it you keep it copacetic
And you learn to accept it you know it's so pathetic
And you just don't get it you keep it copacetic
And you learn to accept it you know it's so pathetic
And you just don't get it you keep it copacetic
And you learn to accept it you know it's so pathetic
And you just don't get it you keep it copacetic
And you learn to accept it you know it's so pathetic

OUTRO

AND that's about it.  Comments, Questions, Prostitutes, e-mail me
at Burttioman@aol.com. Booty is an alcoholic, and we're all proud!

                          "I don't know much about jammin'
                          but when you're jammin', I know it."
                                      -Woodrow W. Toker
                                     (a.k.a Woody the Weed Toker)

*******************************************************************
Comments