Local H - Bound For The Floor Easy Chords & Tabs

 

Bound For The Floor Easy Chords & Tabs

Local H Chords & Tabs

Version: 1 Type: Tab 3 ratings
1 star 2 stars 3 stars 4 stars 5 stars
comments

Bound For The Floor Easy Tab

   
Local H
Bound for the Floor 
(As Good as Dead Track 3)  

Standard Tuning: EADGBe
br=bend up one semitone and release to original note

Chords names provided for those who want to use A-shaped 
barre chords for C and D.


Riff 1:
|------------------------------------------------------------|
|------------------------------------------------------------|
|------------------------------------------------------------|
|--7-7--777--10-1010-101010------5-5--555--12-1212-121212----|
|--7-7--777--10-1010-101010------5-5--555--12-1212-121212----|
|--5-5--555---8--8-8--8-8-8------3-3--333--10-1010-101010----|
   A          C                  G         D

[ Tab from: http://www.guitartabs.cc/tabs/l/local_h/bound_for_the_floor_easy_tab.html ]
Riff 2:
|-----------------------------------------------------------|
|-----------------------------------------------------------|
|-----------------------------------------------------------|
|--7--7--7-7----10--10-10-10------5--5--5-5---12-1212-12----|
|--7--7—-7-7----10--10-10-10------5--5--5-5---12-1212-12----|
|--5--5—-5-5-----8---8--8--8------3--3—-3-3---10-1010-10----|
   A             C                G           D


Riff 3 
|--------------------------------------------------|
|--------------------------------------------------|
|--------------------------------------------------|
|--7-------10-------5-------12---------------------|
|--7--x9---10--x8---5--x8---12--x8-----------------|
|--5--------8-------3-------10---------------------|
   A        C       G       D


Solo 
|--------------------------------------------------|
|--------------------------------------------------|
|---4-4-4-2-4br-4-2--------------------------------|
|--------------------------------------------------|
|--------------------------------------------------|
|--------------------------------------------------|



Structure

Riff 1 6x
Riff 2 2x
Riff 1 4x
Riff 2 2x
Riff 3 4x
Solo  42x (yes, 42 times!)
Riff 3 4x
Riff 1 2x (on second time, end on first D strum)



Comments