Local H - Bound For The Floor Chords & Tabs

 

Bound For The Floor Chords & Tabs

Local H Chords & Tabs

Version: 1 Type: Bass Tab 0 ratings
1 star 2 stars 3 stars 4 stars 5 stars
comments

Bound For The Floor Bass Tab

Title: Bound For The Floor
Artist: Local H

Tabbed By: Matt Wildes {Snwboard52@aol.com}

* means to mute the strings after played.
-----------------------------------------------------------------------
First off, this is a correction of a tab that was totally off and 
it seemed like the author took no effort in tabbing it, I used no 
portion of his tab so here is the whole thing, right!...Word!
-----------------------------------------------------------------------
The guitar starts off first then the bass comes in at:

Intro
G:|-------------------------|
D:|-------------------------|
A:|-------------5*55---2320-|
E:|---3*3*3*3---------------|

Then it goes straight to:
[ Tab from: http://www.guitartabs.cc/tabs/l/local_h/bound_for_the_floor_btab.html ]
Verse 1
G:|------------------------------------------------------------------|
D:|------------------------------------------------------------------|  
A:|-0-*-0-*-0 0-*-3-*-3-3-*-3-3-3------------------5-*-5-5---2-3-2-0-|
E:|-------------------------------0--3-*-3-*-3-3---------------------|

Starts at {And you don't......}

Verse 2
G:|------------------------------------------------------------------|
D:|------------------------------------------------------------------|
A:|-0---0---0-0-0-3---3-3---2-3-2-0-----------------5---5-5---2-3-2-0|
E:|----------------------------------3---3---3-3-3-------------------|

---------------------------------------------------------------------
Order in which to play:

Intro- Play once
Verse 1- Play 4 times
Verse 2- Play twice
Verse 1- Play 4 times
Verse 2- Play 8 times

---------------------------------------------------------------------
Thats it!....The timing on the tab should be right for the song, 
but listen to the song for timing if needed.I hope that this tab 
has helped you and if you have any questions or comments you can
e-mail me at (Snwboard52@aol.com).

Comments