Local H - Back In The Day Chords & Tabs

 

Back In The Day Chords & Tabs

Local H Chords & Tabs

Version: 1 Type: Bass Tab 0 ratings
1 star 2 stars 3 stars 4 stars 5 stars
comments

Back In The Day Bass Tab

   
Band - Local H
Song - Back in the Day
Album - As Good As Dead
Bassist - Scott Lucas

Tabber - Zack Breneman
Email - MaggitX_X@hotmail.com

It sounds better to me played on a B and E instead of E and A but I have a five string 
some four strings sound bad tuned that low so try it like this if you don't have one. I 
it on my four string.
[ Tab from: http://www.guitartabs.cc/tabs/l/local_h/back_in_the_day_btab.html ]
Intro, Chorus
G---------------------------------------------|
D---------------------------------------------|
A---------22-----000-33-222-----2---000-------|
E-000-333----111------------333---3-----11111-|

Verse
G------------|
D------------|
A---------22-|
E-000-333----|

Fill during Verse
G------------------|
D------------------|
A-3333333355555555-|
E------------------|

Fill towards end of song
G------------|
D------------|
A---6^-6^-6^-|
E-0----------|

End on open E

 Listen to the song to figure out the structure.
 It's not that complicated to figure out.
 Have fun with this coool song!

Any problems just email me if you think of something better.
Comments