Local H - All Right Oh Yeah Chords & Tabs

 

All Right Oh Yeah Chords & Tabs

Local H Chords & Tabs

Version: 1 Type: Tab 0 ratings
1 star 2 stars 3 stars 4 stars 5 stars
comments

All Right Oh Yeah Tab

1/2 step down, Dropped "D"

Verse
|-----------------|
|-----------------|
|o---------------o|
|o--0-0---3---2--o|
|---0-0---3---2---|
|---0-0---3---2---|

Chorus    rhythm 
|----------------|  |-----|
|----------------|  |-----|
|o-----------3--o|  |--5--|
|o--0--5--3--3--o|  |--5--|
|---0--5--3--1---|  |--3--|
|---0--5--3------|  |-----|

Chorus     lead
|----------------------------------|  |-----|
|---7-5-2-5--7-5-2-5--7-5-2-5---3--|  |--5--|
|o--------------------------------o|  |-----|
|o--------------------------------o|  |-----|
|----------------------------------|  |-----|
|----------------------------------|  |-----|
[ Tab from: http://www.guitartabs.cc/tabs/l/local_h/all_right_oh_yeah_tab.html ]
Solo I (1:58)
|------------------------|
|------------------------|
|o--12^--10^--12^-------o|
|o-----------------12^--o|
|------------------------|
|------------------------|

Verse II
|--------------------------------------------------|
|--------------------------------------------------|
|---------------------------------------3-3--3--\--|
|---------------------------------------3-3--3--\--|
|---0-0---0-0---3-3---5-5---3-3---3-3---1-1--1--\--|
|---0-0---0-0---3-3---5-5---3-3---3-3--------------|

"Stupid Me" lick (2:40)
|-----------|
|-----------|
|--10-9-5~--|
|-----------|
|-----------|
|-----------|

Outro
|-------------------------|
|-------------------------|
|o--12-12-12-12-12-/-15--o|
|o-----------------------o|
|-------------------------|
|-------------------------|
Comments