Lobo - Standing At The End Chords & Tabs

 

Standing At The End Chords & Tabs

Lobo Chords & Tabs

Version: 1 Type: Tab 0 ratings
1 star 2 stars 3 stars 4 stars 5 stars
comments

Standing At The End Tab

   
Standing at the end
===================
by Lobo

------------------------------
Written by Poda
Email: prodip@freepop3.net
Date: June 13, 2005
------------------------------


Chords: F#  B   C#  G#m

 	2   2   4   4
	2   4   6   4
	3   4   6   4
	4   4   6   6
	4   2   4   6
	2   2   4   4

Rythm: Cool melodious song. Listen to it, to get the rythm Idea.
       Playing it with acoustic guitar also fun.

Electric Guitar Solo:

F#                                                
|------------------------|------------------------|
|------------------------|------------------------|
|------------------------|-6----------------------|
|-6----6---6--8--9--8----|----9--8-----6-----6----|
|------------------------|------------------------|
|------------------------|------------------------|
                                         
|------------------------|------------------------|
|------------------------|------------------------|
|------------------------|-------------------6----|
|----6--8--9--8--------6-|6---6--8--9--8--------9-|
|------------------------|------------------------|
|------------------------|------------------------|

        C#
|------------------------|------------------------|
|------------------------|------------------------|
|------------------------|------------------------|
|-8-----9-----8--6---6h8-|-4----------------------|
|------------------------|------------------------|
|------------------------|------------------------|

[ Tab from: http://www.guitartabs.cc/tabs/l/lobo/standing_at_the_end_tab.html ]
F#
you've been around for a long long time
i've seen u here before
you'll meet some guy
who really turns you on

C#                          F#
and sneak out of the side door

B                          C#
you never look my way i know

F#
i ain't much to look at

G#m
but one of these night you going home with me

C#                   F#
i'm gonna sit to there

(Chorus)
B                                F#
well i was just waiting for my time

                C#       F#
standing at the end of line

B                   C#                          F#
i got a lot of love and i'm saving inside for you

B                             F#
yeh i'm just waiting for my time

                C#       F#
standing at the end of line

B                       C# 
but you gonna know that you've been loved

G#m                          F#
and i kept through loving you
(Chorus end)


F#
you looked right at me and smile
one time just last week
and what one look from you did to me

C#               F#
it kept me in my sit

B              C#
but you picked another guy

F#
to entertain you that night

G#m
and i was left to entertain myself

C#              F#
so i got it to find

(Repeat Chorus)


Note: This is my first tablature, chords, transcript whatever. Please email me at
prodip@freepop3.net for my mistakes.
Comments