Lo Tel - Teenager Of The Year Chords & Tabs

 

Teenager Of The Year Chords & Tabs

Lo Tel Chords & Tabs

Version: 3 Type: Tab 0 ratings
1 star 2 stars 3 stars 4 stars 5 stars
comments

Teenager Of The Year Tab

THIS IS MY FIRST TAB, IM ONLY 15, BUT IM PRETTY SURE THIS 100% CORRECT.
IT IS A FAIRLY EASY SONG ONCE YOU GET THE HANG OF IT.
[ Tab from: http://www.guitartabs.cc/tabs/l/lo_tel/teenager_of_the_year_tab_ver_3.html ]
       POWER CHORDS        .
---------------.---------------------------------------------------------------------------|
---------------.---------------------------------------------------------------------------|
-------3-------.---------2-----------------------------------------------------------------|
----3----3-3---.-----3-----3-3--REPEAT THIS A FEW TIMES------------------------------------|
-1-1--1---1----.--1-1--1----1--------------------------------------------------------------|
---------------.---------------------------------------------------------------------------|


 --------------.----------------.------------.---------------------------------------|
---------------.----------------.------------.---------------------------------------|
------  5-------.-------4-------.-------8----.-------7-------------------------------|
-----5-----5-5-.-----5----5-5---.----8---8-8-.----8---8-8----------------------------|
--3-3--3----3--.--3-3--3---3----.-6-6-6---6--.-6-6-6---6-----------------------------|
---------------.----------------.------------.---------------------------------------|
      MUCK AROUND WITH THE TIMING ON THIS, AND YOU WILL HAVE IT IN A MATTER
     OF NO TIME.


SEE YA!
      TABBED BY ZINGS
Comments