Lo Tel - Teenager Of The Year Chords & Tabs

 

Teenager Of The Year Chords & Tabs

Lo Tel Chords & Tabs

Version: 2 Type: Tab 0 ratings
1 star 2 stars 3 stars 4 stars 5 stars
comments

Teenager Of The Year Tab

   
Title: Teenager of the Year
Artist: Lo-Tel
Album: Planet of the Stereos

Great song and easy too. This is a more in-depth version of the previous 
file. ENJOY

INTRO
e----------------|--------------------|
B----------------|--------------------|
G--------3-------|--------2-----------|
D-----3----3---3-|-----3----3---3---3-| x2
A-1-1---1----1---|-1-1--1-----1---1---|
E----------------|--------------------|

VERSE
e----------------|--------------------|
B----------------|--------------------|
G--------3-------|--------2-----------|
D-----3----3---3-|-----3----3---3---3-| x2
A-1-1---1----1---|-1-1--1-----1---1---|
E----------------|--------------------|
[ Tab from: http://www.guitartabs.cc/tabs/l/lo_tel/teenager_of_the_year_tab_ver_2.html ]
e----------------|-------------------|
B----------------|-------------------|
G---------3------|--------2----------|
D-----3-----3--3-|-----3----3---3--3-| x2
A----------------|-------------------|
E-3-3---3----3---|-3-3--3-----3---3--|

e------------------|
B---------4--------|
G-----3-----3--3---|
D-1-1---1----1---1-| x2
A------------------|
E------------------|

e-----------------|
B---------4-------|
G-----------3-----|
D-----5---------5-|x2
A-3-3---3-----3---|
E-----------------|

PRE
Gm|Eb|Cm|Bb

CHORUS
F         Bb       Eb     Gm
  Hey teenager of the year
F         Bb       Eb       Gm
  Win a chance to judge your peers
F         Bb       Eb       Gm
  Hey teenager of the year
F         Bb       Eb
  Your new life begins right here



Great song by a great aussie artist. Corrections welcome at 
fender137@yahoo.com
Happy playing and rock on! 
Comments