Lo Tel - Teenager Of The Year Acoustic Chords & Tabs

 

Teenager Of The Year Acoustic Chords & Tabs

Lo Tel Chords & Tabs

Version: 1 Type: Tab 0 ratings
1 star 2 stars 3 stars 4 stars 5 stars
comments

Teenager Of The Year Acoustic Tab

   
Killer song. I originally posted the album version, but this one sounds a whole lot
better. It's easier to play it with a capo on one, but I've written it out as it
should be played (no capo). This version's on the Panel Vol.II album. 

ARTIST: Lo-Tel
SONG: Teenager Of The Year
ALBUM: Planet Of The Stereos

INTRO- Guitar One
e----------------|--------------------|
B----------------|--------------------|
G--------3-------|--------2-----------|
D-----3----3---3-|-----3----3---3---3-| 
A-1-1---1----1---|-1-1--1-----1---1---|
E----------------|--------------------|

e----------------|--------------------|
B----------------|--------1-----------|
G--------3-------|--------2-----------|
D-----3----3---3-|-----3----3---3---3-| 
A-1-1---1----1---|-1-1--1-----1---1---|
E----------------|--------------------|

VERSE- Both Guitars
e----------------|--------------------|
B----------------|--------------------|
G--------3-------|--------2-----------|
D-----3----3---3-|-----3----3---3---3-| x2
A-1-1---1----1---|-1-1--1-----1---1---|
E----------------|--------------------|

e----------------|-------------------|
B----------------|-------------------|
G---------3------|--------2----------|
D-----3-----3--3-|-----3----3---3--3-| x2
A----------------|-------------------|
E-3-3---3----3---|-3-3--3-----3---3--|

e------------------|
B---------4--------|
G-----3-----3--3---|
D-1-1---1----1---1-| x2
A------------------|
E------------------|
[ Tab from: http://www.guitartabs.cc/tabs/l/lo_tel/teenager_of_the_year_acoustic_tab.html ]
e-----------------|
B---------4-------|
G-----------3-----|
D-----5---------5-|x2
A-3-3---3-----3---|
E-----------------|

PRE- Guitar One: 
Play verse (except first four measures), plus the following after it
e----------------|--------------------|
B----------------|--------------------|
G--------3-------|--------2-----------|
D-----3----3---3-|-----3----3---3---3-| 
A-1-1---1----1---|-1-1--1-----1---1---|
E----------------|--------------------|

e----------------|--------1-----------|
B----------------|----------1---1-----|
G--------3-------|------------2-------|
D-----3----3---3-|-----3--------------| 
A-1-1---1----1---|-1-1--1-------------|
E----------------|--------------------|


Guitar Two: Play the following chord progression
Gm | Gm | Eb | Cm |Bb |


CHORUSG- Guitar Two
F         Bb       Eb     Gm
  Hey teenager of the year
F         Bb       Eb       Gm
  Win a chance to judge your peers
F         Bb       Eb       Gm
  Hey teenager of the year
F         Bb       Eb
  Your new life begins right here

GUITAR ONE
E-8-6---6-8-8-6-----6-|
B-----6---------6-6---|
G---------------------|
D---------------------|
A---------------------|
e---------------------|

Play the riff over the entire chorus. Then back to the intro, another verse, another pre, another chorus and then both guitars play the pre again. Finish on Bbsus2
 FORM:
Intro
Verse
Pre-chorus
Chorus
Intro
Verse
Pre
Chorus
Pre 


Abuse, questions, commments, praise
fender137@yahoo.com.au

Have fun, play it loud.
Jess
Comments