Lo-pro - Sunday Chords & Tabs

 

Sunday Chords & Tabs

Lo-pro Chords & Tabs

Version: 1 Type: Tab

Sunday Tab

verse
e(----------)
b(----------)
g(----------)
d(--4---7-5-)
a(----6-----)
D(----------)
[ Tab from: http://www.guitartabs.cc/tabs/l/lo_pro/sunday_tab.html ]
chorus x2
e(----------------------------------------------------)
b(----------------------------------------------------)
g(--4-4-4-444-------999-4-4-4-444-------7-77-99-10-10-)
d(--4-4-4-444-2-2-2-999-4-4-4-444-2-2-2-7-77-99-10-10-)
a(--2-2-2-222-2-2-2-777-2-2-2-222-2-2-2-5-55-77--8--8-)
D(------------2-2-2---------------2-2-2---------------)

bridge x8
e(--------------)(----------------)
b(--------------)(----------------)
g(--4-4-x44-x44-)(--44-77-7799-11-)
d(--4-4-x44-x44-)(--44-77-7799-11-)
a(--2-2-x22-x22-)(--22-55-5577-9--)
D(--------------)(----------------)