Lmf - Fucking Wonderland Chords & Tabs

 

Fucking Wonderland Chords & Tabs

Lmf Chords & Tabs

Version: 1 Type: Bass Tab 0 ratings
1 star 2 stars 3 stars 4 stars 5 stars
comments

Fucking Wonderland Bass Tab

Song: Fucking Wonderland
Artist: LMF
Tabbed by pinhead 711
 
Standard tunning for a 5 string bass (BEADG)
 
Intro
G-----------------
D-----------------
A-----------------
E-----------------
B------9/3--p--3--
 
Verse (Repeat)
G------------------------------- 
D-------------------------------
A-------------------------------
E-----------------5--3----------
B--3--p--3--p----------3--------
 
Chorus (Repeat)
G------------------------------ 
D------------------------------
A---------------------5--------
E-----------------5------------
B--3--p--3--p------------------


[ Tab from: http://www.guitartabs.cc/tabs/l/lmf/fucking_wonderland_btab.html ]
Comments