Lloyd Alex - Amazing Chords & Tabs

 

Amazing Chords & Tabs

Lloyd Alex Chords & Tabs

Version: 1 Type: Tab 0 ratings
1 star 2 stars 3 stars 4 stars 5 stars
comments

Amazing Tab

Song: "Amazing"
Artist: Alex Lloyd
CD: Watching Angels Mend (2001)
Tabber: Daniel Gammon

I tabbed this a while back and I realised that some of the chords 
were minutely different to what Alex plays. I decided to revise 
the tab after it was voted the #1 song in the Hottest 100. The 
lyrics are also fixed. I think...

Verse

e|---------------------------------------|
B|----2---------------3------------------|
G|----0---------------0------------------|
D|----2---------------4------------------|
A|--------------------0------------------|
E|--------------------X------------------|
  When all you wanna do is rock
  But you don't wanna bear the shock no more
  When it's the swell that clears your eyes
  You lay the feelings that you have denied


Pre-Chorus
e|----------------------------------------------------|
B|------------------------------------2---------------|
G|---6------------6---------6---------3---------------|
D|---7------------6---------5---------4---------------|
A|---7------------7---------7---------4---------------|
E|----------------------------------------------------|
 When every wolf is at your door
 Just like a hundred times before
 But you dont wanna lead the end


Chorus (play twice, on second time hold the D)
e|--------------------2---------5---------------------------|
B|----2---------------2---------7---------------------------|
G|----2-------1-------2---------7---------------------------|
D|----2-------2-------4---------7---------------------------|
A|------------2-------4---------5---------------------------|
E|--------------------2-------------------------------------|
 Cause you were amazing, And we did amazing things
 I wouldn't change it, Cause you were amazing


Verse 2
e|------------------------------------------|
B|----2-----------------------3-------------|
G|----0-----------------------0-------------|
D|----2-----------------------4-------------|
A|----------------------------0-------------|
E|----------------------------X-------------|
  You're building bridges in your mind
  Your eagerness now is on the line
  The plastic mountain at your feet
  Divided streets now as you look to find your seat

[ Tab from: http://www.guitartabs.cc/tabs/l/lloyd_alex/amazing_tab.html ]
Pre-Chorus
e|---------------------------------------------------|
B|------------------------------------2--------------|
G|---6------------6---------6---------3--------------|
D|---7------------6---------5---------4--------------|
A|---7------------7---------7---------4--------------|
E|---------------------------------------------------|
 When every wolf is at your door
 Just like a hundred times before
 But you dont wanna lead the end


Chorus (play twice, on second time hold the D)
e|--------------------2---------5---------------------------|
B|----2---------------2---------7---------------------------|
G|----2-------1-------2---------7---------------------------|
D|----2-------2-------4---------7---------------------------|
A|------------2-------4---------5---------------------------|
E|--------------------2-------------------------------------|
 Cause you were amazing, And we did amazing things
 I wouldn't change it, Cause you were amazing


Bridge (The A and the D are the lead in chords and the main bridge
chords are Bm and E. On the last line of the bridge, after the Bm
you slide up to a D and then to an E)

e|------2------2-----------2----------2----5--------------|
B|--2---3------3-----------3----------3----7--------------|
G|--2---2------4-----1-----4----1-----4----7----1---------|
D|--2----------4-----2-----4----2-----4----7----2---------|
A|-------------2-----2-----2----2-----2----5----2---------|
E|--------------------------------------------------------|
           But I really didn't wanna push today
           And I really didn't want to end this way
           But the things that didn't find us
           Are the things we put behind us on this day


Chorus (play twice, on second time hold the D)
e|--------------------2---------5---------------------------|
B|----2---------------2---------7---------------------------|
G|----2-------1-------2---------7---------------------------|
D|----2-------2-------4---------7---------------------------|
A|------------2-------4---------5---------------------------|
E|--------------------2-------------------------------------|
 Cause you were amazing, And we did amazing things
 I wouldn't change it, Cause you were amazing

Any suggestions or comments; whipping_synergy@yahoo.com
Comments