Living Things - Bom Bom Bom Chords & Tabs

 

Bom Bom Bom Chords & Tabs

Living Things Chords & Tabs

Version: 1 Type: Tab

Bom Bom Bom Tab

Title  Bom Bom Bom
Artist- Living Things
Album  Ahead of the Lions

Tabbed by: Larry A

Tuning: Standard
Guitar 1  Distortion
Guitar 2 - Distortion with Bitcrusher

 _________________
|Intro (0:00-0:10)|
|_________________|

Guitar 1
e| |---------------------------------|---------------------------------|
B| |---------------------------------|---------------------------------|
G| |12--11------14--14--141514-------|12--11------14--14--141514-------|
D| |12--12------15--15--151515-------|12--12------15--15--151515-------|
A| |-x---x------x----x---x-x-x-------|-x---x------x----x---x-x-x-------|
E| |10--10------13--13--131313-------|10--10------13--13--131313-------|

Guitar 1
e| |---------------------------------|
B| |---------------------------------|
G| |12--11------14--14--141514-------|
D| |12--12------15--15--151515-------|
A| |-x---x------x----x---x-x-x-------|
E| |10--10------13--13--131313-------|
 _________________
|Verse (0:11-0:38)|
|_________________|

Guitar 1
e| |---------------------------------|---------------------------------|
B| |---------------------------------|---------------------------------|
G| |---------------------------------|12--11------14--14--141514-------|
D| |---------------------------------|12--12------15--15--151515-------|
A| |---------------------------------|-x---x------x----x---x-x-x-------|
E| |---------------------------------|10--10------13--13--131313-------|
          We're gunna wake this city tonight                   I'll

Guitar 1
e| |---------------------------------|---------------------------------|
B| |---------------------------------|---------------------------------|
G| |---------------------------------|12--11------14--14--141514-------|
D| |---------------------------------|12--12------15--15--151515-------|
A| |---------------------------------|-x---x------x----x---x-x-x-------|
E| |---------------------------------|10--10------13--13--131313-------|
             watch it burn into the twilight                   I said

Guitar 1
e| |---------------------------------|---------------------------------|
B| |---------------------------------|---------------------------------|
G| |---------------------------------|12--11------14--14--141514-------|
D| |---------------------------------|12--12------15--15--151515-------|
A| |---------------------------------|-x---x------x----x---x-x-x-------|
E| |---------------------------------|10--10------13--13--131313-------|
      "Hey, Hey, Hey" this is our birthright                   To be

Guitar 1
e| |---------------------------------|---------------------------------|
B| |---------------------------------|---------------------------------|
G| |---------------------------------|12--11------14--14--141514-------|
D| |---------------------------------|12--12------15--15--151515-------|
A| |---------------------------------|-x---x------x----x---x-x-x-------|
E| |---------------------------------|10--10------13--13--131313-------|
    bought and sold and shipped off ready to die   ready to fight

 __________________
|Chorus (0:39-0:53)|
|__________________|

Guitar 1
e| |---------------------------------|---------------------------------|
B| |o--------------------------------|--------------------------------o|
G| |12--11------14--14--141514-------|12--11------14--14--141514-------|
D| |12--12------15--15--151515-------|12--12------15--15--151515-------|
A| |-x---x------x----x---x-x-x-------|-x---x------x----x---x-x-x------o|
E| |10--10------13--13--131313-------|10--10------13--13--131313-------|
 1.Were going Bom Bom Bom Bom Bom away Bom Bom Bom Bom Bom
 2.    Were going Bom Bom Bom Bom away Bom Bom Bom Bom Bom


 _________________
|Verse (0:53-1:22)|
|_________________|


Guitar 1
e| |---------------------------------|---------------------------------|
B| |---------------------------------|---------------------------------|
G| |---------------------------------|12--11------14--14--141514-------|
D| |---------------------------------|12--12------15--15--151515-------|
A| |---------------------------------|-x---x------x----x---x-x-x-------|
E| |---------------------------------|10--10------13--13--131313-------|
     I can't drink or drive take a nineteen                    So
[ Tab from: http://www.guitartabs.cc/tabs/l/living_things/bom_bom_bom_tab.html ]
Guitar 1
e| |---------------------------------|---------------------------------|
B| |---------------------------------|---------------------------------|
G| |---------------------------------|12--11------14--14--141514-------|
D| |---------------------------------|12--12------15--15--151515-------|
A| |---------------------------------|-x---x------x----x---x-x-x-------|
E| |---------------------------------|10--10------13--13--131313-------|
          I set off to join the U.S. Army                      But
Guitar 1
e| |---------------------------------|---------------------------------|
B| |---------------------------------|---------------------------------|
G| |---------------------------------|12--11------14--14--141514-------|
D| |---------------------------------|12--12------15--15--151515-------|
A| |---------------------------------|-x---x------x----x---x-x-x-------|
E| |---------------------------------|10--10------13--13--131313-------|
              this time I left my country                      I felt
Guitar 1
e| |---------------------------------|---------------------------------|
B| |---------------------------------|---------------------------------|
G| |---------------------------------|12--11------14--14--141514-------|
D| |---------------------------------|12--12------15--15--151515-------|
A| |---------------------------------|-x---x------x----x---x-x-x-------|
E| |---------------------------------|10--10------13--13--131313-------|
     the desert sand marchin' under my feet        can march with me

 __________________
|Chorus (1:22-1:36)|
|__________________|

Guitar 1
e| |---------------------------------|-----------------------------------|
B| |o--------------------------------|--------------------------------o--|
G| |12--11------14--14--141514-------|12--11------14--14--141514---------|
D| |12--12------15--15--151515-------|12--12------15--15--151515---\-----|
A| |-x---x------x----x---x-x-x-------|-x---x------x----x---x-x-x---///o|-|
E| |10--10------13--13--131313-------|10--10------13--13--131313---------|
 1.Were going Bom Bom Bom Bom Bom away Bom Bom Bom Bom Bom
 2.    Were going Bom Bom Bom Bom away Bom Bom Bom Bom Bom     We're going


 __________________
|Bridge (1:36-1:58)|
|__________________|

Guitar 2
e| |---------------------------------|---------------------------------|
B| |o--------------------------------|--------------------------------o|
G| |---------------------------------|---------------------------------|
D| |-5-5-5-5-5-5-5-5-8-8-8-8-3-3-3-3-|-5-5-5-5-5-5-5-5-5-5-5-5-3-3-3-3-|
A| |o5-5-5-5-5-5-5-5-8-8-8-8-3-3-3-3-|-5-5-5-5-5-5-5-5-5-5-5-5-3-3-3-3o|
E| |-3-3-3-3-3-3-3-3-6-6-6-6-1-1-1-1-|-3-3-3-3-3-3-3-3-3-3-3-3-1-1-1-1-|
  1. To take this    City    tonight   We're going to shake    Daylight
                                       this city to a broad
  2. To take this    City    tonight   We're going to shake    Daylight
                                       this city to a broad

Guitar 1
e| |---------------------------------|---------------------------------|
B| |---------------------------------|---------------------------------|
G| |12--11------14--14--141514-------|12--11------14--14--141514-------|
D| |12--12------15--15--151515-------|12--12------15--15--151515-------|
A| |-x---x------x----x---x-x-x-------|-x---x------x----x---x-x-x-------|
E| |10--10------13--13--131313-------|10--10------13--13--131313-------|
     Shake it             Oh shake it                                  |
                                                                       |
Guitar 2                                                               |
e| |---------------------------------|---------------------------------|
B| |---------------------------------|---------------------------------|
G| |---------------------------------|---------------------------------|
D| |-5-5-5-5-5-5-5-5-5-5-5-5-3-3-3-3-|-5-5-5-5-5-5-5-5-5-5-5-5-3-3-3-3-|
A| |-5-5-5-5-5-5-5-5-5-5-5-5-3-3-3-3-|-5-5-5-5-5-5-5-5-5-5-5-5-3-3-3-3-|
E| |-3-3-3-3-3-3-3-3-3-3-3-3-1-1-1-1-|-3-3-3-3-3-3-3-3-3-3-3-3-1-1-1-1-|


 _________________
|Verse (1:58-2:19)|
|_________________|

(Bass, you could use Guitar 2)

  I said "No N.Y.C., Los Angeles, no San Luis, no New Orleans
    No you and me, no you and me, no sympathy
   'Cause we're going to bring them
    Bring them to their knees..." And

 __________________
|Chorus (2:19-2:33)|
|__________________|

Guitar 1
e| |---------------------------------|-----------------------------------|
B| |o--------------------------------|--------------------------------o--|
G| |12--11------14--14--141514-------|12--11------14--14--141514---------|
D| |12--12------15--15--151515-------|12--12------15--15--151515---\-----|
A| |-x---x------x----x---x-x-x-------|-x---x------x----x---x-x-x---///o|-|
E| |10--10------13--13--131313-------|10--10------13--13--131313---------|
 1.Were going Bom Bom Bom Bom Bom away Bom Bom Bom Bom Bom
 2.    Were going Bom Bom Bom Bom away Bom Bom Bom Bom Bom

 _________________
|Outro (2:33-3:04)|
|_________________|

Guitar 2
e| |---------------------------------|---------------------------------|
B| |o--------------------------------|--------------------------------o|
G| |---------------------------------|---------------------------------|
D| |-5-5-5-5-5-5-5-5-8-8-8-8-3-3-3-3-|-5-5-5-5-5-5-5-5-5-5-5-5-3-3-3-3-|
A| |o5-5-5-5-5-5-5-5-8-8-8-8-3-3-3-3-|-5-5-5-5-5-5-5-5-5-5-5-5-3-3-3-3o|
E| |-3-3-3-3-3-3-3-3-6-6-6-6-1-1-1-1-|-3-3-3-3-3-3-3-3-3-3-3-3-1-1-1-1-|
  1. To take this    City    tonight   We're going to shake    Daylight
                                       this city to a broad
  2. To take this    City    tonight   We're going to shake    Daylight
                                       this city to a broad

Guitar 1
e| |---------------------------------|---------------------------------|
B| |o--------------------------------|--------------------------------o|
G| |12--11------14--14--141514-------|12--11------14--14--141514-------|
D| |12--12------15--15--151515-------|12--12------15--15--151515-------|
A| |ox---x------x----x---x-x-x-------|-x---x------x----x---x-x-x------o|
E| |10--10------13--13--131313-------|10--10------13--13--131313-------|
  1. Shake it            Oh shake it   Shake it            Oh shake it |
  2. Shake it            Oh shake it   Shake it            Oh shake it |
                                                                       |
Guitar 2                                                               |
e| |---------------------------------|---------------------------------|
B| |o--------------------------------|--------------------------------o|
G| |---------------------------------|---------------------------------|
D| |-5-5-5-5-5-5-5-5-5-5-5-5-3-3-3-3-|-5-5-5-5-5-5-5-5-5-5-5-5-3-3-3-3-|
A| |o5-5-5-5-5-5-5-5-5-5-5-5-3-3-3-3-|-5-5-5-5-5-5-5-5-5-5-5-5-3-3-3-3o|
E| |-3-3-3-3-3-3-3-3-3-3-3-3-1-1-1-1-|-3-3-3-3-3-3-3-3-3-3-3-3-1-1-1-1-|

 ________
| Legend |
|________|

x   - Mute

\ - Pick scrape up or
/// - Slide up then down

 _______
| Notes |
|_______|

The band just uses one guitar for this song so if you want, use Guitar 1 when there are 
parts and just let the bass play.