Living End - West End Riot Chords & Tabs

 

West End Riot Chords & Tabs

Living End Chords & Tabs

Version: 1 Type: Tab 0 ratings
1 star 2 stars 3 stars 4 stars 5 stars
comments

West End Riot Tab

   
 West End Riot  - The Living End- Tabbed by Mick Fryar manumick20@yahoo.com
 Solo by tlerock@yahoo.com
Intro:
e-------------------0-7-7-0-7-0--
b-8-8-8-7-7-7-8-8----------------  (x4)
then,
e-3-2-0--------------------------------------------
b-------3-0----------------------------------------
g-----------2-0------------------------------------
d---------------4-2--2-2------------2-2------------
a------------------------2-2-3-3-4------2-2-3-3-4-- (x2)
e--------------------------------------------------
Strum an E chord.

 Verse:  d-2-2---------------
         a-----2-2-3-3-4----- (x14) but every so often an E chord is played instead of the a-2-2--

Chorus: E - D - D# (repeat)
        B - E - C - G
        A - B - C - D - E

Verse
Bridge: G - C (x4)
        A - D (x3)
        B - E - B - C - D(D#-E)
[ Tab from: http://www.guitartabs.cc/tabs/l/living_end/west_end_riot_tab.html ]
Solo: 
e----------------------------------------3-3-3-5-5-5-6-6-6-8-8-8-10-11-10----13-13-13-15-15-15-17-17-17-
b-----------------8-7-----------------------------------------------------------------------------------
g-------7-------8--------------3-2----------------------------------------------------------------------
d-5-7s8---8-7-5----------0-3-0-----5-4-5----------------------------------------------------------------
a-------------------------------------------------------------------------------------------------------
e----------------------3--------------------------------------------------------------------------------

e-18-18-18-18h20p18----------------------------------------------------------10------------10-10--------------15-----14-----13---12-----11---12-----
b--------------------------------------------------------------------------10--10----------------10-------------------------------------------------
g--------------------5--5s8--7--10s8s10--13-12---5--5s8--10s8s10--13--12----------12-10-10----------12-10-10-----0-0----0-0---0-0---0-0----0----0---
d--------------------x--x-x--x---x--x-----x--x---x--x-x----x-x-----x---x----------------------------------------------------------------------------
a--------------------3--3s6--5---8s6s10--11-10---3--3s5---8s6s10--11--10----------------------------------------------------------------------------
e---------------------------------------------------------------------------------------------------------------------------------------------------Thats all nathan has so far, visit his site,http://alltorndown.cjb.net

Then the second bit of intro ( listen youll know what I mean)

Last Verse: a-7-7-2-2-3-3-5-5-(x6)

Then strum an E chord or play b-8-8-8-8-7-7-7-7-5-5-5-5-3-3-3-3-(x3)

then play chords G - B - E

Slide into chorus.

Last Chorus: E - D - D# (x2)
             B - E - C - G
             A - B - C - D (x3)
 Finish on E.
 Tabbed by Michael Fryar    -  manumick20@yahoo.com
 solo by N.Smith
             
             
Comments