Living End - Uncle Harry Chords & Tabs

 

Uncle Harry Chords & Tabs

Living End Chords & Tabs

Version: 2 Type: Tab 0 ratings
1 star 2 stars 3 stars 4 stars 5 stars
comments

Uncle Harry Tab

   
#----------------------------------PLEASE NOTE---------------------------------#
#This file is the author's own work and represents their interpretation of the #
#song. You may only use this file for private study, scholarship, or research. #
#------------------------------------------------------------------------------#

Song: Uncle Harry
Band: The Living End
Album: Roll On
Tabbed by: Caris O'Malley (punkplace@another.com) 

Brand new song by our favorite Australian rockabilly band! Go buy the album, it's destined to be a classic. I'm pretty sure that the tab is pretty good, but it's kind of hard to distinguish between the guitar and the stand up bass. It works, though!!

e-----------------------------------------------------------| 
B-----------------------------------------------------------|
G-------------------------------99-99--99--99---------------|
D--------------77--77--77--77---99-99--99--99---------------|
A--------------77--77--77--77---77-77--77--77---------------|
E--------------55--55--55--55-------------------------------|


e-----------------------------------------------------------| 
B-----------------------------------------------------------|
G-----8888--------------------------------------------------|
D-88888888----8-8---8-8-----7-7--7-7--8---------------------|
A-88886666----8-8---8-8-----7-7--7-7--8---------------------|
E-6666--------6-6---6-6-----5-5--5-5--6---------------------|
 

e-----------------------------------------------------------| 
B-----------------------------------------------------------|
G--------------99--99------------------8888-----------------|
D-77-77-77-77--99--99----99--99----88888888-----------------|
A-77-77-77-77--77--77----99--99----88886666-----------------|
E-55-55-55-55------------77--77----6666---------------------|
  

e-----------------------------------------------------------| 
B-----------------------------------------------------------|
G-----------------------------------------------------------|
D-99999999--------------------------------------------------|
A-99999999--------------------------------------------------|
E-77777777--------------------------------------------------|
  a g a i n !

e-----------------------------------------------------------| 
B-----------------------------------------------------------|
G-----------------------------------------------------------|
D-6--6----6----6--6-----6--6-6--6---------------------------|
A-6--6----6----6--6-----6--6-6--6---------------------------|
E-4--4----4----4--4-----4--4-4--4---------------------------|
p.m...         ....        ...
  

e-----------------------------------------------------------| 
B-----------------------------------------------------------|
G-----------------------------------------------------------|
D-6--6----------6----6-6--6---6-6--6------------------------|
A-6--6----------6----6-6--6---6-6--6------------------------|
E-4--4----------4----4-4--4---4-4--4------------------------|
p.m...               ...      ...
  

e-----------------------------------------------------------| 
B-----------------------------------------------------------|
G-----------------------------------------------------------|
D-6-6---6--6-6---6---6-6---6--6-6--6------------------------|
A-6-6---6--6-6---6---6-6---6--6-6--6------------------------|
E-4-4---4--4-4---4---4-4---4--4-4--4------------------------|
p.m..      ...       ...      ...
  

e-----------------------------------------------------------| 
B-----------------------------------------------------------|
G-----------------------------------------------------------|
D--------6--6-6--------------------7-7-7-7-8-8-8-8----------|
A--------6--6-6--------------------7-7-7-7-8-8-8-8----------|
E--------4--4-4--------------------5-5-5-5-6-6-6-6----------|
p.m.        ...
 

e-----------------------------------------------------------| 
B-----------------------------------------------------------|
G-8--8--7--7--8--8----------8--8--7--7--8--8----------------|
D-8--8--7--7--8--8----------8--8--7--7--8--8----------------|
A-6--6--5--5--6--6----------6--6--5--5--6--6----------------|
E-----------------------7p6-------------------7p6-----------|
  

e-----------------------------------------------------------| 
B-----------------------------------------------------------|
G-8--8--7--7--8--8--------9---9---9---9---9---9-------------|
D-8--8--7--7--8--8--------9---9---9---9---9---9-------------|
A-6--6--5--5--6--6--------7---7---7---7---7---7-------------|
E--------------------7p6------------------------------------|



CHORUS (You know, "Uncle Harry pissing in the bath...)

e-----------------------------------------------------------| 
B-----------------------------------------------------------|
G-----------------------------------------------------------|
D--6-6-----6--6--6------6--7-7--7---7-7----7----------------|
A--6-6-----6--6--6------6--7-7--7---7-7----7----------------|
E--4-4-----4--4--4------4--5-5--5---5-5----5----------------|
p.m...        ....         ...      ...  
   Oh Uncle Harry you've done it all again

e-----------------------------------------------------------| 
B-----------------------------------------------------------|
G-----------------------------------------------------------|
D----8--8------------8--8-8--8---7-7--7-7-7---7-------------|
A----8--8------------8--8-8--8---7-7--7-7-7---7-------------|
E----6--6------------6--6-6--6---5-5--5-5-5---5-------------|
p.m......               ...      ...    ...
  You're pissing in the bath every now and then

e-----------------------------------------------------------| 
B-----------------------------------------------------------|
G-----------------------------------------------------------|
D----6--6-6-6--6-6---7--7-7------7--------------------------|
A----6--6-6-6--6-6---7--7-7------7--------------------------|
E----4--4-4-4--4-4---5--5-5------5--------------------------|
p.m.    ...    ...      ...
  

e-----------------------------------------------------------| 
B-----------------------------------------------------------|
G-----------------------------------------------------------|
D---8-8-----8------8-8----8---------------------------------|
A---8-8-----8------8-8----8---------------------------------|
E---6-6-----6------6-6----6---------------------------------|
p.m....            ...
 

e-----------------------------------------------------------| 
B-----------------------------------------------------------|
G-----------------------------------------------------------|
D----7-7----7----7-7----7~----------------------------------|
A----7-7----7----7-7----7~----------------------------------|
E----5-5----5----5-5----5~----------------------------------|
p.m.....         ... 
  

e-----------------------------------------------------------| 
B-----------------------------------------------------------|
G----------7--7--7--7--8------------------------------------|
D----------7--7--7--7--8------------------------------------|
A----------5--5--5--5--6------------------------------------|
E-----------------------------------------------------------|
  
[ Tab from: http://www.guitartabs.cc/tabs/l/living_end/uncle_harry_tab_ver_2.html ]
e-----------------------------------------------------------| 
B-----------------------------------------------------------|
G--7--7--7--7--------8--------------------------------------|   x2
D--7--7--7--7--------8--------------------------------------|
A--5--5--5--5--------6--------------------------------------|
E-----------------------------------------------------------|
  

e-----------------------------------------------------------| 
B-----------------------------------------------------------|
G-----------------------------------------------------------|
D-8--8--8--8------------------------------------------------|
A-8--8--8--8------------------------------------------------|
E-6--6--6--6------------------------------------------------|
  


CHORUS


e-----------------------------------------------------------| 
B-----------------------------------------------------------|
G-----------------------------------------------------------|
D-7-7-7-7-7-7-7-7---5-5--5-5--5-5--5-5----------------------|
A-7-7-7-7-7-7-7-7---5-5--5-5--5-5--5-5----------------------|
E-5-5-5-5-5-5-5-5---3-3--3-3--3-3--3-3----------------------|
  Poor Uncle Harry lost his mind along the way

e-----------------------------------------------------------| 
B-----------------------------------------------------------|
G-----------------------------------------------------------|
D-7-7-7-7-7-7-7-7---5-5--5-5--5-5--5-5----------------------|
A-7-7-7-7-7-7-7-7---5-5--5-5--5-5--5-5----------------------|
E-5-5-5-5-5-5-5-5---3-3--3-3--3-3--3-3----------------------|
  Poor Uncle Harry happened twenty years today

e-----------------------------------------------------------| 
B-----------------------------------------------------------|
G--5/6~-----------------------------------------------------|
D--5/6~-----------------------------------------------------|
A--3/4~-----------------------------------------------------|
E-----------------------------------------------------------|
  Comes around to say, "Hello."

e-----------------------------------------------------------| 
B-----------------------------------------------------------|
G-6/7~------------------------------------------------------|
D-6/7~------------------------------------------------------|
A-4/5~------------------------------------------------------|
E-----------------------------------------------------------|
  Little did we know

e-----------------------------------------------------------| 
B-----------------------------------------------------------|
G-6~--------------------------------------------------------|
D-6~-------------5-5--5-5--5-5--5-5-------------------------|
A-4~-------------5-5--5-5--5-5--5-5-------------------------|
E----------------3-3--3-3--3-3--3-3-------------------------|
  He's up to his old dirty tricks again

e-----------------------------------------------------------| 
B-----------------------------------------------------------|
G--5~-----------3~------------------------------------------|
D--5~-----------3~----------4~------------3~----------------|
A--3~-----------1~----------4~------------3~----------------|
E---------------------------2~------------1~----------------|
  Oh Uncle Harry, you've done it all again

e-----------------------------------------------------------| 
B-----------------------------------------------------------|
G------------5-5--5--5-5--6--6-6--7-7-----------------------|
D-----5-5-5--5-5--5--5-5--6--6-6--7-7-----------------------|       x2
A-----5-5-5--3-3--3--3-3--4--4-4--5-5-----------------------|
E-----3-3-3-------------------------------------------------|
p.m.         ...     ...     ...

e-----------------------------------------------------------| 
B-----------------------------------------------------------|
G----5--5---5-----------------------------------------------|
D----5--5---5-----------------------------------------------|
A----3--3---3-----------------------------------------------|
E-----------------------------------------------------------|
p.m.....   
   

e-----------------------------------------------------------| 
B-----------------------------------------------------------|
G--5---5-----5----------------------------------------------|
D--5---5-----5----------------------------------------------|
A--3---3-----3----------------------------------------------|
E-----------------------------------------------------------|
p.m......
 

e-----------------------------------------------------------| 
B-----------------------------------------------------------|
G--6--6---6--6--6---6---------------------------------------|
D--6--6---6--6--6---6---------------------------------------|
A--4--4---4--4--4---4---------------------------------------|
E-----------------------------------------------------------|
p.m....      .....
 

e-----------------------------------------------------------| 
B-----------------------------------------------------------|
G-----------------------------------------------------------|
D--6--6---6--6--6---6---------------------------------------|
A--6--6---6--6--6---6---------------------------------------|
E--4--4---4--4--4---4---------------------------------------|
p.m....      ....
   

e-----------------------------------------------------------| 
B-----------------------------------------------------------|
G--5--5---5--5--5---5---------------------------------------|
D--5--5---5--5--5---5---------------------------------------|
A--3--3---3--3--3---3---------------------------------------|
E-----------------------------------------------------------|
p.m....      ....
  

e-----------------------------------------------------------| 
B-----------------------------------------------------------|
G--5--5---5--5--5---5---------------------------------------|
D--5--5---5--5--5---5---------------------------------------|
A--3--3---3--3--3---3---------------------------------------|
E-----------------------------------------------------------|
p.m....      ....
 

e-----------------------------------------------------------| 
B-----------------------------------------------------------|
G--6--6---6--6--6---6---------------------------------------|
D--6--6---6--6--6---6---------------------------------------|
A--4--4---4--4--4---4---------------------------------------|
E-----------------------------------------------------------|
p.m....      .... 
   

e-----------------------------------------------------------| 
B-----------------------------------------------------------|
G--7--7--7--7----8------------------------------------------|
D--7--7--7--7----8------------------------------------------|
A--5--5--5--5----6------------------------------------------|
E-----------------------------------------------------------|
   

e-----------------------------------------------------------| 
B-----------------------------------------------------------|
G--7--7--7--7--8--------------------------------------------|
D--7--7--7--7--8--------------------------------------------|      x2
A--5--5--5--5--6--------------------------------------------|
E-----------------------------------------------------------|


e-----------------------------------------------------------| 
B-----------------------------------------------------------|
G-----------------------------------------------------------|
D--8--8--8--8-----------------------------------------------|
A--8--8--8--8-----------------------------------------------|
E--6--6--6--6----------------------------------------------



CHORUS x2
Comments