Living End - Prisoner Of Society Chords & Tabs

 

Prisoner Of Society Chords & Tabs

Living End Chords & Tabs

Version: 4 Type: Tab 0 ratings
1 star 2 stars 3 stars 4 stars 5 stars
comments

Prisoner Of Society Tab

   
#----------------------------------PLEASE NOTE--------------------------------#
#This file is the author's own work and represents their interpretation of the#
#song. You may only use this file for private study, scholarship, or research.#
#-----------------------------------------------------------------------------#

Date: Tue, 26 May 1998 11:38:31 +0930
From: Champ 
Subject: l/living_end/prisoner_of_society.crd

Prisoner of Society

Intro:
-------4-----5-----6------------
-------4-----5-----6------------
-9-----5-----6-----7-----2-0-2/-
-0-----6-----7-----8-----2-0-2/-
-7-----6-----7-----8-----0-0-0--
-0-0-0-4-0-0-5-0-0-6-0-0--------
                                Repeat 4 times, on last stay at A note

Bass enters:
A C D E                 x2

Guitar:
A C D E                 x2



between D & A, play this
---------------
---------------
---------------
---------------
---------------
---------------

play this after A
---------------
---------------
---------------
---------------
-3-2-0---2-3---
-------3-----3-


                   E  - Hammer on like this
-7-7-7-7-
-8-8-8-8-
-9-9-9-9-
-9-9-9-9-
-7-8-7-8-
---------

Intro x2

Verse 2:

Pre Chorus


Chorus

[ Tab from: http://www.guitartabs.cc/tabs/l/living_end/prisoner_of_society_tab_ver_4.html ]
------------------------------------------------
------------------------------------------------
-2-2-2-3-3-3-2-2-2------------------------------
-2-2-2-3-3-3-2-2-2------------------------------
------------------------------------------------
------------------------------------------------

------------------------------------------------
------------------------------------------------
-2-2-2-3-3-3-2-2-2------------------------------
-2-2-2-3-3-3-2-2-2------------------------------
------------------------------------------------
------------------------------------------------

------------------------------------------------
------------------------------------------------
-8-8-8-9-9-9-8-8-8------------------------------
-8-8-8-9-9-9-8-8-8------------------------------
------------------------------------------------
------------------------------------------------

------------------------------------------------
------------------------------------------------
-2-2-2-3-3-3-2-2-2------------------------------
-2-2-2-3-3-3-2-2-2------------------------------
------------------------------------------------
------------------------------------------------

------------------------------------------------
------------------------------------------------
-8-8-8-9-9-9-8-8-8------------------------------
-8-8-8-9-9-9-8-8-8------------------------------
------------------------------------------------
------------------------------------------------

Solo: .........
Comments