Living End - Prisoner Of Society Chords & Tabs

 

Prisoner Of Society Chords & Tabs

Living End Chords & Tabs

Version: 3 Type: Tab 0 ratings
1 star 2 stars 3 stars 4 stars 5 stars
comments

Prisoner Of Society Tab

   
Heres the intro for prisoner of society-

E|--------------------------|
B|--------------------------|
G|---------------------2-0-2|           X3
D|9-----6-----7-----8--2-0-2|
A|7-----6-----7-----8-------|
E|0-0-0-4-0-0-5-0-0-6-0-----|

then the bass kicks in
A|0-0-0-3-3-3-5-5-5-7-7-7-|             X2
[ Tab from: http://www.guitartabs.cc/tabs/l/living_end/prisoner_of_society_tab_ver_3.html ]
then the guitar
E|------------------------------------------|
B|------------------------------------------|
G|--2-2-2-2-2-5-5-5-5-5-7-7-7-7-7-9-9-9-9-9-|
D|--2-2-2-2-2-5-5-5-5-5-7-7-7-7-7-9-9-9-9-9-|
A|--0-0-0-0-0-3-3-3-3-3-5-5-5-5-5-7-7-7-7-7-|
E|------------------------------------------|

thats as far as i've got so.... any thing U can tell me would be 
helpful.
my e-mail address is-    theonlyking87@hotmail.com
Comments