Living End - Living In Sin Chords & Tabs

 

Living In Sin Chords & Tabs

Living End Chords & Tabs

Version: 1 Type: Tab 0 ratings
1 star 2 stars 3 stars 4 stars 5 stars
comments

Living In Sin Tab

   
 Living In Sin - THE LIVING END - Tabbed by M.Fryar, manumick20@yahoo.com


x=dead note
s-slide
h=hammer-on
p=pull-off
~=bend

Intro:                 B7#9#5
e-------5-7-6-5-0h3p0--10--
b-0h5h8----------------8---
g----------------------8---
d----------------------7---
a----------------------x---
e----------------------7---

e------------------------------------------------0-3---
b------------------------------------------------------
g------------------------------------------------------
d------------------------------------------------------
a---------1-1--------------1-1----------1-1------------
e-0-0-3-3-----3-3--0-0-3-3-----3-3--0-0-----3-3--------

e--------------------------------------------------------------------
b--------------------------------------------------------------------
g--------------------------------------------------------------------
d---------1-1--------------1-1---------------------------------------
a-0-0-3-3-----3-3--0-0-3-3-----3-3----------1-1--------------1-1-----
e-----------------------------------0-0-3-3-----3-3--0-0-3-3-----3-3-
                                           B7#9#5
e-------------------------------------------10--
b--------------------------------------------8--
g--------------------------------------------8--
d--------------------------------------------7--
a-2-2-2--3-3-3-2-2-2-0-0-0---------1-1-------x---
e--------------------------0-0-3-3-----3-3-0-7---

Verse:
e---------------------------------------------------------------------
b---------------------------------------------------------------------
g---------------------------------------------------------------------
d---------------------------------------------------------------------
a---------1-1--------------1-1--------------1-1--------------1-1------
e-0-0-3-3-----3-3--0-0-3-3-----3-3--0-0-3-3-----3-3--0-0-3-3-----3-3--

e---------------------------------------------------------------------
b---------------------------------------------------------------------
g---------------------------------------------------------------------
d---------1-1--------------1-1--------------3-3--------------3-3------
a-0-0-3-3-----3-3--0-0-3-3-----3-3--2-2-5-5-----5-5--2-2-5-5-----5-5--
e---------------------------------------------------------------------
[ Tab from: http://www.guitartabs.cc/tabs/l/living_end/living_in_sin_tab.html ]
e---------------------------------------------------------------------
b---------------------------------------------------------------------
g---------------------------------------------------------------------
d------------------------------------------1-1--------------1-1-------
a---------1-1--------------1-1-----0-0-3-3-----3-3--0-0-3-3-----3-3---
e-0-0-3-3-----3-3--0-0-3-3-----3-3------------------------------------
                                                    B7#9#5
e----------------------------------------------------10--
b----------------------------------------------------8--
g----------------------------------------------------8--
d---------3-3--------------3-3-----------------------7--
a-2-2-5-5-----5-5--2-2-5-5----5-5---------1-1--------x--
e---------------------------------0-0-3-3-----3-3-0--7-- Repeat

Chorus: Em - Am - B7 - C7 - Am - C7 - B7
e-------------------10---
b-------------------8---
g-------------------8---
d-------------------7---
a---------1-1-------x---
e-0-0-3-3-----3-3-0-7---

Verse

Chorus

Guitar Fill: Em

Bridge: C - G - G# - A#
        C - G - G# - A#
        D# - C - B - E

Solo:
  Em                          Em                Bb         Em
e---0---0---0---0---0---0---:---0---0---0---0------------:---0---0---0---0---0---0---:-
b-5-------------------------:-5------------------------6-:-5-------------------------:-
g-----4---5---2---4---------:-----4---5---2----------7---:-----4---5---2---4---------:-
d---------------------5---2-:----------------------8-----:---------------------5---2-:-
a---------------------------:--------------------8-------:---------------------------:-
e---------------------------:------------------6---------:---------------------------:-
  Cm^7   B7    Em  Am (over Harmonic Minor Scale) Cm
e-3------2-----0-:----------------------------:----------------------------:-
b---4-------3~---:----------------------------:----------------------------:-
g-----4----------:----------------------------:-------5-4------------------:-
d----------------:-------7-6------------------:-----5-----6-5-3------------:-
a----------------:-----7-----8-7-5------------:-3-6--------------6-5-3-2-3-:-
e----------------:-5-8-------------8-7-5-4-5--:----------------------------:-
  Cm                            Bb          B        Em
e-----------------------------:----------------------0-:-
b-------4-3-----s-6-4-3---3---:-------6----------7---0-:-
g-----5-----5-----------5---5-:-----7---7------8-----0-:-
d---5---------5---------------:---8----------9-------2-:-
a-6---------------------------:-8----------9---------2-:-
e-----------------------------:----------------------0-:-.

*pause*(for bass)

 B7 - C7
 Em - Am - B7 - Am - Em
  
Final Chorus:
 Em - Am - B7 - C7 - Am - C7 - B7 - C7 - B7 - C7 - B7
 Em - C - D - Em - C - D - Em

Outro:
e---0---0---0---0---0---0----
b-5--------------------------
g-----4---5---2---4----------
d---------------------5---2--
a----------------------------
e----------------------------


Tabbed by manumick20@yahoo.com ,Michael Fryar
 
Comments