Living Colour - Solace Of You Chords & Tabs

 

Solace Of You Chords & Tabs

Living Colour Chords & Tabs

Version: 1 Type: Tab 0 ratings
1 star 2 stars 3 stars 4 stars 5 stars
comments

Solace Of You Tab

#----------------------------------PLEASE NOTE---------------------------------#
#This file is the author's own work and represents their interpretation of the #
#song. You may only use this file for private study, scholarship, or research. #
#------------------------------------------------------------------------------#
From: P.vdBerg@kub.nl  (P.VD BERG)
Subject: TAB:Solace of you-Living Colour!!!!!!
[ Tab from: http://www.guitartabs.cc/tabs/l/living_colour/solace_of_you_tab.html ]
 Hiya all!
 I know a lot of you have been screaming your lunges out for some
 Living Colour TAB, well here is 'The solace of you' and some pieces of
 'Love rears up it's ugly head'. Like always use your imagination while
 playing these parts and do some improvisation so it sounds exactly like
 the record. I wrote this down without listening to the record at the same
 time so some misplacements may have occured. C-ya and have fun!
 
    Living Colour - Solace of You (a real GEM!)
 
All chords are played on the D-G-B strings so all chords are really a cut
down version of the "real" chords.
 
E-|--intro:-------------------------------------------------------------------|
B-|--7p8--7p8--7p8--7p8--put-your-amp-real-loud-------------------------------|
G-|--7p7--7p7--7p7--7p7--dont-strike-your-strings-----------------------------|
D-|--7p9--7p9--7p9--7p9--(after-this-amp-normal-loudness/clean)---------------|
A-|---------------------------------------------------------------------------|
E-|-(repeat-many-times)-------------------------------------------------------|
 
Riff 1 :
 
    keep a barr during the entire song   (every chord has a barr behind it)
E-|---------------------------------------------------------------------------|
B-|--8--7--8--7-s10------10----------8--8--7----------------------------------|
G-|--7--7--7--7-s11----------11------9--9--7----------------------------------|
D-|--9--7--9--7-s11--------------11--9--9--7----------------------------------|
A-|---------------------------------------------------------------------------|
E-|---------------------------------------------------------------------------|
     (s ----> slide from about the 5th fret (with barr ofcourse))
 
E-|------------------9--------------------------------------------------------|
B-|--8--7--8--7--10-----10----------8--8--7-----------------------------------|
G-|--7--7--7--7-------------11------8--8--7-----------------------------------|
D-|--9--7--9--7-----------------11--9--9--7-----------------------------------|
A-|---------------------------------------------------------------------------|
E-|---------------------------------------------------------------------------|
 
Riff 2 :
 
E-|---------------------------------------------------------------------------|
B-|--8--8--7--7--7--5--5--5--5--5--6--6--5--5--5--5--3--3--3--5--3--5--3------|
G-|--7--7--7--7--7--6--6--6--6--6--5--5--5--5--5--5--4--4--4--5--4--5--4------|
D-|--9--9--7--7--7--7--7--7--7--7--7--7--5--5--5--5--5--5--5--5--5--5--5------|
A-|---------------------------------------------------------------------------|
E-|---------------------------------------------------------------------------|
 
E-|---------------------------------------------------------------------------|
B-|--8--8--7--7--7--5--5--5--5--5--6--6--5--5--5--5--3--3--3--3--3--3--3------|
G-|--7--7--7--7--7--6--6--6--6--6--5--5--5--5--5--5--4--4--4--4--4--4--4------|
D-|--9--9--7--7--7--7--7--7--7--7--7--7--5--5--5--5--5--5--5--5--5--5--5------|
A-|---------------------------------------------------------------------------|
E-|---------------------------------------------------------------------------|
 
 
Riff 3 :
 
E-|--------------------------9------------------------------------------------|
B-|--8--7--8--7-s10------10-----10-----------9--8--8p7--8p7-------------------|
G-|--7--7--7--7-s11-----------------11------10--9--7p7--7p7---etc.------------|
D-|--9--7--9--7-s11---------------------11--10--9--9p7--9p7---(Like-the-intro-|
A-|------------------------------------------------------------dont-strike-the|
E-|------------------------------------------------------------strings)-------|


 
Comments