Living Colour - Cult Of Personality Chords & Tabs

 

Cult Of Personality Chords & Tabs

Living Colour Chords & Tabs

Version: 2 Type: Bass Tab 0 ratings
1 star 2 stars 3 stars 4 stars 5 stars
comments

Cult Of Personality Bass Tab

Song:CULT OF PERSONALITY BASS TAB
Band:LIVING COLOUR
Album:VIVID
tabbed by: RICH KENNEDY   dickyboy@att.net
 
SO MANY BASS PLAYERS TAKE THE TIME TO TAB OUT SONGS SO WE CAN ALL LEARN. I TABBED THIS OUT 
BECAUSE I HAVE GOTTEN COUNTLESS TABS OFF THE NET AND I THOUGHT I SHOULD FINALLY GIVE SOME-
THING BACK. 


MAIN RIFF 1
                                
G:---------------------------------------------------------------
D:----3-O----2------3-0-----2--------3-0----2-----3--0-----2-2---
A:---------------------------------------------------------------
E:--3-----3-------3------3---------3-----3------3-------3--------

MAIN RIFF WITH FILL 1
G:--------------------2-------------------------------------------
D:----3-0----5--3--0-----3--0----------3-0----2-----3--0-----2----
A:-----------------------------3--2-------------------------------
E:--3-----3--------------------------3-----3-----3--------3-------                                                                               
                                                                                                                                      
IM THE CULT OF PERSONALITY PART ALTERNATES BETWEEN F AND C
G:----------------------------------------------------------------
D:----------------------------------------------------------------
A:-1-------THEN SECOND TIME---1---3-------------------------------
E:----1-----------------------------------------------------------

[ Tab from: http://www.guitartabs.cc/tabs/l/living_colour/cult_of_personality_btab_ver_2.html ]
PRECHORUS IS MAIN RIFF WITH FILL 1 AND MAIN RIFF WITH FILL 2
G:--------------------2------------------------2-------5--4----------
D:----3-0----5--3--0-----3--O----------3--0------3-0---------5--3--0-  PLAY 2X
A:-----------------------------3--2----------------------------------
E:--3-----3--------------------------3------3------------------------

CHORUS                                                         
G:-------------------------------------7--------------------------5---3---------
D:-----------------------------------7--------12-------------------------5---0--  PLAY 2X
A:-1-1-------0-2-3-3-------2-3-4--5--------12-----12-----------3--(3)-(3)-(3)---
E:------1---3---------3----------------------------------1----------------------
     								  PLAY (3) NOTES 2ND TIME
GUITAR SOLO VARIANTS MAIN RIFF 1					C 
G:---------------------------------------------------------------------------
D:--------------------------------------------3--0------------3-0------------
A:--------5------------------5--------AND------------------------------------
E:--3--1----3---0----3---1------3--0--------3------3---0----3------3---0--0--

OUTRO IS PRECHORUS PLAYED ONCE WITH THIS PLAYED THE SECOND TIME
G:-------------------2----------------------2-------5-4-----5-4-----5-4-----5-4----
D:---3-0----5--3--0----3-0----------3--0------3-0-------5-3-----5-3-----5-3-----5-3
A:--------------------------3--2---------------------------------------------------
E:-3-----3------------------------3------3-----------------------------------------




Comments