Livin Joy - Dreamer Chords & Tabs

 

Dreamer Chords & Tabs

Livin Joy Chords & Tabs

Version: 2 Type: Bass Tab 0 ratings
1 star 2 stars 3 stars 4 stars 5 stars
comments

Dreamer Bass Tab

   
Song: Dreamer
Artist: Livin' Joy

r - rest

Verse:

   F        Ab      G    C

G:-------------------------------------------------------------
D:-----3-------------------------------------------------------
A:-----------------------3-3-r-3-------------------------------
E:-1-r---1--4-4-r-4-3-3----------------------------------------

   F        Ab      G    C

G:-------------------------------------------------------------
D:-----3-------------------------------------------------------
A:-----------------------3-3-3431------------------------------
E:-1-r---1--4-4-r-4-3-3----------------------------------------

-repeat as necessary


Build-up:

   F        Ab      G     Bb       Ab       C        Bb
[ Tab from: http://www.guitartabs.cc/tabs/l/livin_joy/dreamer_btab_ver_2.html ]
G:------------------------------------------------------3------
D:-----3--------------5----------------6-----------------------
A:-------------------------1-1--1-----------3-3--3---1---1-1--1
E:-1-----1--4-4---4-3--3------------4----4---------------------

chorus:

   Ab       C       Eb         F

G:-------------------------------------------------------------
D:----6---------------1-1--1-1-33-3----------------------------
A:----------3-3--3---------------------------------------------
E:-4----4------------------------------------------------------

   
Breakdown:

   C       F         Eb           Bb

G:-------------------------------------------------------------
D:---------33-3--3------1-1--1-1-------------------------------
A:-3--3-3--------------------------1-1--1----------------------
E:-------------------------------------------------------------




Transcribed by Christopher Funicelli
Comments or suggestions, please email me at cfunz@aol.com
Comments