Liverpool Express - Its A Beautiful Day Chords & Tabs

 

Its A Beautiful Day Chords & Tabs

Liverpool Express Chords & Tabs

Version: 1 Type: Tab

Its A Beautiful Day Tab

   
---------------------------------------------------------------------
	      Itís a beautiful day Ė Liverpool express
---------------------------------------------------------------------
Tabbed by: up_in_flames

Tuning: EADGBE

Intro   0:15

  Am
E|-------0--------------0--------|
B|-----1---1--1-------1---1--1---|
G|---2-------2------2-------2----|
D|-------------------------------|
A|--0--------------0-------------|
E|-------------------------------|

Verse   0:20

ďItís a beautiful day...Ē

     Am              Fmaj7          C              E7
E|--------0---------------0--------------0----------------0----------|
B|------1---1--1--------1---1--1-------1---1--1----------3-----------|
G|----2-------2-------2-------2------2-------2---------1-------------|
D|----------------------------------------------------0--------------|
A|---0---------------------------------------------------------------|
E|------------------1---------------3--------------0-----------------|

     Am              Fmaj7          C              E7
E|--------0---------------0--------------0----------------0----------|
B|------1---1--1--------1---1--1-------1---1--1----------3-----------|
G|----2-------2-------2-------2------2-------2---------1-------------|
D|----------------------------------------------------0--------------|
A|---0---------------------------------------------------------------|
E|------------------1---------------3--------------0-----------------|


Second Verse   0:36

Am                 G              F               E
  Todayís the day I wanna do the things I gotta do

Am                 G	           F                E   G
  And if i get a chance I'd like to do it all with you

Verse 2   0:44

ďItís a beautiful dayÖĒ

     Am              Fmaj7          C              E7
E|--------0---------------0--------------0----------------0----------|
B|------1---1--1--------1---1--1-------1---1--1----------3-----------|
G|----2-------2-------2-------2------2-------2---------1-------------|
D|----------------------------------------------------0--------------|
A|---0---------------------------------------------------------------|
E|------------------1---------------3--------------0-----------------|
[ Tab from: http://www.guitartabs.cc/tabs/l/liverpool_express/its_a_beautiful_day_tab.html ]
     Am              Fmaj7          C              E7
E|--------0---------------0--------------0----------------0----------|
B|------1---1--1--------1---1--1-------1---1--1----------3-----------|
G|----2-------2-------2-------2------2-------2---------1-------------|
D|----------------------------------------------------0--------------|
A|---0---------------------------------------------------------------|
E|------------------1---------------3--------------0-----------------|


Second Verse 2


Am                  G         F                E
Today is like a holiday we used to have from school

Am                   G              F               E  G  A
Running to the beach to be the first one In the pool


Bridge    1:10   (carry on Am from second verse 2)

       G          F        E             Am
Itís a beautiful oh what a beautiful day

       G          F        E             Am
Itís a beautiful oh what a beautiful day

       G          F        E             Am
Itís a beautiful oh what a beautiful day

G             F            E

Verse 3    1:27

     Am              Fmaj7          C              E7
E|--------0---------------0--------------0----------------0----------|
B|------1---1--1--------1---1--1-------1---1--1----------3-----------|
G|----2-------2-------2-------2------2-------2---------1-------------|
D|----------------------------------------------------0--------------|
A|---0---------------------------------------------------------------|
E|------------------1---------------3--------------0-----------------|

     Am              Fmaj7          C              E7
E|--------0---------------0--------------0----------------0----------|
B|------1---1--1--------1---1--1-------1---1--1----------3-----------|
G|----2-------2-------2-------2------2-------2---------1-------------|
D|----------------------------------------------------0--------------|
A|---0---------------------------------------------------------------|
E|------------------1---------------3--------------0-----------------|


Second verse 3    1:44

Am                   G            F  	     E
If you have the time Iíve got so much I wanna say

Am                   G            F           E  Am
If nobody will listen well I'll say it anyway


Bridge 2    1:53

       G          F        E             Am
Itís a beautiful oh what a beautiful day

       G          F        E             Am
Itís a beautiful oh what a beautiful day

       G          F
Itís a beautiful ohÖ (what a beautiful day)

there you go, that's it. Have fun!


| /  slide up
| \  slide down
| h  hammer-on
| p  pull-off
| ~  vibrato
| +  harmonic
| x  Mute note
===============================================================================