Liveonrelease - Slow Down Chords & Tabs

 

Slow Down Chords & Tabs

Liveonrelease Chords & Tabs

Version: 1 Type: Tab 0 ratings
1 star 2 stars 3 stars 4 stars 5 stars
comments

Slow Down Tab

Song: Slow Down
Artist: LiveonRelease
Album: Seeing Red
As tabbed by Joe Muggah	

Chorus
e-3-3-3-3--2-2-2-2--2-2-2--2-2-2------------------------
B-3-3-3-3--3-3-3-3--2-2-2--3-3-3------------------------
G-0-0-0-0--4-4-4-4--3-3-3--4-4-4------------------------
D-0-0-0-0--4-4-4-4--4-4-4--4-4-4------------------------
A-2-2-2-2--2-2-2-2--4-4-4--2-2-2------------------------
E-3-3-3-3-----------2-2-2-------------------------------
[ Tab from: http://www.guitartabs.cc/tabs/l/liveonrelease/slow_down_tab.html ]
*Verse
e-3------2------2------|-3-3-3-3--2-2-2-2--2-2-2--2-2-2-
B-3------3------2------|-3-3-3-3--3-3-3-3--2-2-2--3-3-3-
G-0-(x4)-4-(x4)-3-(x8)-|-0-0-0-0--4-4-4-4--3-3-3--4-4-4-
D-0------2------4------|-0-0-0-0--4-4-4-4--4-4-4--4-4-4-
A-2-------------4------|-2-2-2-2--2-2-2-2--4-4-4--2-2-2-
E-3-------------2------|-3-3-3-3-----------2-2-2--------
("Where did the time go...")
*The Verse and the Chorus are the same except the verse 
has a riff played at the beginning every fourth time.

Pre-Chorus (each hit 4 times)                 end on
e--------------------------------------------|----------
B--------------------------------------------|----------
G-4-----4--9---4-----4------4-----4-----4----|--4-------
D-4--4--4--9---4--4--4--5---4--4--4--4--4--4-|--4-------
A-2--4--2--7---2--4--2--5---2--4--2--4--2--4-|--2-------
E----2------------2-----3------2-----2-----2-|----------
("I don't know where to go...")

Bridge
e-3-3-3-3-3-3-3-3--2-2-2--2-2-2-2-----------------------
B-3-3-3-3-3-3-3-3--3-3-3--2-2-2-2-----------------------
G-0-0-0-0-0-0-0-0--4-4-4--3-3-3-3-----------------------
D-0-0-0-0-0-0-0-0--4-4-4--4-4-4-4-----------------------
A-2-2-2-2-2-2-2-2--2-2-2--4-4-4-4-----------------------
E-3-3-3-3-3-3-3-3---------2-2-2-2-----------------------
("Don't have to give it all away...")

Chorus
Verse
Pre-Chorus
Chorus
Verse
Pre-Chorus
Chorus
Bridge
Chorus
Comments