Liveonrelease - Im Afraid Of Brittany Spears Chords & Tabs

 

Im Afraid Of Brittany Spears Chords & Tabs

Liveonrelease Chords & Tabs

Version: 1 Type: Tab 0 ratings
1 star 2 stars 3 stars 4 stars 5 stars
comments

Im Afraid Of Brittany Spears Tab

-------------------------------------------------------------------------------
                 I'm Afraid Of Brittany Spears - Live On Release
-------------------------------------------------------------------------------

By:Sean (seazy_666@hotmail.com)

Intro
e|--------------------------------------------------------------------------|
B|--------------------------------------------------------------------------|
G|-7-7-----------------444444-----------------------------------------------|
D|-7-7-XXXX--7-7-------444444--555555---------------------------------------|
A|-5-5-XXXX--7-7-XXXX--222222--555555---------------------------------------|
E|-----------5-5-XXXX----------333333---------------------------------------|

Solo
e|-5-5-5-3-3-3-2-2-------2-2-2-3-3-2-2-2------------------------------------|
B|-----------------5-5-5-----------------5-5-5-3-3-5-5-5-3-3-3-3------------|
G|--------------------------------------------------------------------------|
D|--------------------------------------------------------------------------|
A|--------------------------------------------------------------------------|
E|--------------------------------------------------------------------------|
[ Tab from: http://www.guitartabs.cc/tabs/l/liveonrelease/im_afraid_of_brittany_spears_tab.html ]
Verse (palm Muted)
e|--------------------------------------------------------------------------|
B|--------------------------------------------------------------------------|
G|-66666666------------99999999---------------------------------------------|
D|-66666666--99999999--99999999--77777777-----------------------------------|
A|-44444444--99999999--77777777--77777777-----------------------------------|
E|-----------77777777------------55555555-----------------------------------|

Chorus
e|--------------------------------------------------------------------------|
B|--------------------------------------------------------------------------|
G|-77777777------------44444444---------------------------------------------|
D|-77777777--77777777--44444444--55555555-----------------------------------|
A|-55555555--77777777--22222222--55555555-----------------------------------|
E|-----------55555555------------33333333-----------------------------------|

Bridge
Play every note eight times
e|--------------------------------------------------------------------------|
B|--------------------------------------------------------------------------|
G|--------------------------------------------------------------------------|
D|-7-----4-----8-----9-----6-----10-----11------8---------------------------|
A|-5--7--2--5--6--8--7--9--4--7--8--10--9---11--6--9------------------------|
E|----5-----3-----6-----7-----5-----8-------9------7------------------------|

ORDER
-Intro x2
-Solo x2
-Verse x2
-Chorus x3
-Intro x1
-Verse x4
-Chorus x1
-Intro x1
-Bridge x1
-Solo x2
-Chorus x7 Fade out

===============================================================================


Comments