Liveonrelease - Im Afraid Of Britney Spears Chords & Tabs

 

Im Afraid Of Britney Spears Chords & Tabs

Liveonrelease Chords & Tabs

Version: 2 Type: Tab 0 ratings
1 star 2 stars 3 stars 4 stars 5 stars
comments

Im Afraid Of Britney Spears Tab

LIVE ON RELEASE - I'm Afraid of Britney Spears
Tabbed by: Carlos Eraldo Lopes
carloseraldo@zipmail.com.br

Intro
e|--------------------------------------------------------------------------|
B|--------------------------------------------------------------------------|
G|-7-7----------------------------------------------------------------------|
D|-7-7-XXXX--7-7--------999999---555555-------------------------------------|
A|-5-5-XXXX--7-7-XXXX---999999---555555-------------------------------------|
E|-----------5-5-XXXX---777777---333333-------------------------------------|
2x
[ Tab from: http://www.guitartabs.cc/tabs/l/liveonrelease/im_afraid_of_britney_spears_tab_ver_2.html ]
Then solo 
Solo
e|-5-5-5-3-3-3-2-2-0-0-0----2-2-2-3-3-2-2-2-0-0-0---------------------------|
B|----------------------------------------- ----------3-3---55----333--5----|
G|--------------------------------------------------------------------------|
D|--------------------------------------------------------------------------|
A|--------------------------------------------------------------------------|
E|--------------------------------------------------------------------------|
2x

Verse (palm Muted)
e|-----------22222222-------------------------------------------------------|
B|-----------22222222-------------------------------------------------------|
G|-44444444--22222222--77777777---------------------------------------------|
D|-44444444--22222222--77777777--55555555-----------------------------------|
A|-22222222------------55555555--55555555-----------------------------------|
E|-------------------------------33333333-----------------------------------|

Chourus is just the intro repeated but with no muting just struming
Comments