Liveonrelease - I M Afraid Of Britney Spears Chords & Tabs

 

I M Afraid Of Britney Spears Chords & Tabs

Liveonrelease Chords & Tabs

Version: 1 Type: Tab 0 ratings
1 star 2 stars 3 stars 4 stars 5 stars
comments

I M Afraid Of Britney Spears Tab

   
Artist: LiveonRelease
Title: I'm Afraid of Britney Spears
Album: Seeing Red / 2001

		--------------------------------------------
		----------This Tab Is 100% Correct----------
		--------------------------------------------

Standard Tuning - Low to High: E, A, D, G, B, E

Riff 1

e|-------x-x-x-x-------x-x-x-x------------------------|
b|-------x-x-x-x-------x-x-x-x------------------------|
g|--7-7--x-x-x-x-------x-x-x-x--4-4-4-4-4-------------|
d|--7-7--x-x-x-x--7-7--x-x-x-x--4-4-4-4-4--5-5-5-5-5--|
a|--5-5--x-x-x-x--7-7--x-x-x-x--2-2-2-2-2--5-5-5-5-5--|
e|-------x-x-x-x--5-5--x-x-x-x-------------3-3-3-3-3--|

Riff 2

e|--5-5-5--3-3-3--2-2---------2-2-2--3-3-3--2-2-2------------------------------|
b|---------------------5-5-5-----------------------5-5-5--3-3-3--5-5-5--3-3-3--|
g|-----------------------------------------------------------------------------|
d|-----------------------------------------------------------------------------|
a|-----------------------------------------------------------------------------|
e|-----------------------------------------------------------------------------|

Verse - (Palm Muted)
[ Tab from: http://www.guitartabs.cc/tabs/l/liveonrelease/i_m_afraid_of_britney_spears_tab.html ]
e|------------------------------------------------------------------------|
b|------------------------------------------------------------------------|
g|--------------------------------------7-7-7-7-7-7-7-7-------------------|
d|--9-9-9-9-9-9-9-9-9--7-7-7-7-7-7-7-7--7-7-7-7-7-7-7-7--5-5-5-5-5-5-5-5--|
a|--9-9-9-9-9-9-9-9-9--7-7-7-7-7-7-7-7--5-5-5-5-5-5-5-5--5-5-5-5-5-5-5-5--|
e|--7-7-7-7-7-7-7-7-7--5-5-5-5-5-5-5-5-------------------3-3-3-3-3-3-3-3--|

Chorus

e|------------------------------|
b|------------------------------|
g|--7-7-7---------4-4-4---------|
d|--7-7-7--7-7-7--4-4-4--5-5-5--|
a|--5-5-5--7-7-7--2-2-2--5-5-5--|
e|---------5-5-5---------3-3-3--|

Bridge

e|----------------------------------------------------------------------------------------------------------------|
b|----------------------------------------------------------------------------------------------------------------|
g|--7-7-7---------8-8-8---------9-9-9---------6-6-6---------10-10-10------------11-11-11------------8-8-8---------|
d|--7-7-7--7-7-7--8-8-8--8-8-8--9-9-9--9-9-9--6-6-6--7-7-7--10-10-10--10-10-10--11-11-11--11-11-11--8-8-8--7-7-7--|
a|--5-5-5--7-7-7--6-6-6--8-8-8--7-7-7--9-9-9--4-4-4--7-7-7---8--8--8--10-10-10---9--9--9--11-11-11--6-6-6--7-7-7--|
e|---------5-5-5---------6-6-6---------7-7-7---------5-5-5-------------8--8--8-------------9--9--9---------5-5-5--|


Order:

Riff 1: 2x

Riff 2: 2x

Verse: 2x

Chorus: 3x

Riff 1: 1x

Verse: 4x

Chorus: 1x

Riff 1: 1x

Bridge: 1x

Riff 1 and Riff 2 Played In Harmony: 2x

Chorus: 4x

Riff 1 and Riff 2 Played In Harmony: Until Fade (Approx. 4 1/2 times)



						



					|------------------------------------------------------|
					|-------------Transcribed by Adam Baumann--------------|
					|------------------------------------------------------|
Comments