Liveonrelease - Hardcore Chords & Tabs

 

Hardcore Chords & Tabs

Liveonrelease Chords & Tabs

Version: 1 Type: Tab 0 ratings
1 star 2 stars 3 stars 4 stars 5 stars
comments

Hardcore Tab

Song: Hardcore
Artist: LiveonRelease
Album: Seeing Red
As tabbed by Joe Muggah	

Bass Intro
G--------------------------------------------------------
D---------5-----------------------5----------------------
A-----5-------3---3-5-5-------5-------3------------------
E-3-----------------------3------------------------------

Chorus
e--------------------------------------------------------
B--------------------------------------------------------
G-------------------------3------------------------------
D-3/5-5-5-5---3-3/5-5-5---3-3----------------------------
A-3/5-5-5-5---3-3/5-5-5---1-3----------------------------
E-1/3-3-3-3---1-1/3-3-3-----1----------------------------
[ Tab from: http://www.guitartabs.cc/tabs/l/liveonrelease/hardcore_tab.html ]
Verse
e--------------------------------------------------------
B--------------------------------------------------------
G--------8-8---------------------------------------------
D-5-5-5--8-8--8-8-8-8-8-8---3---4------------------------
A-5-5-5--6-6--8-8-8-8-8-8---3---4------------------------
E-3-3-3-------6-6-6-6-6-6---1---2------------------------
("Well, it's so raw...")

Bridge (each hit 8 times, palm muted then louder)
e--------------------------------------------------------
B--------------------------------------------------------
G---------5---3-----------5---3--------------------------
D-5---3---5---3---5---3---5---3--------------------------
A-5---3---3---1---5---3---3---1--------------------------
E-3---1-----------3---1----------------------------------
("So why'd you wanna bitch...")

Bass Intro
Chorus
Verse
Chorus
Verse
Chorus
Bass Intro
Bridge
Verse
Chorus
Comments