Liveonrelease - Get With It Chords & Tabs

 

Get With It Chords & Tabs

Liveonrelease Chords & Tabs

Version: 1 Type: Tab 0 ratings
1 star 2 stars 3 stars 4 stars 5 stars
comments

Get With It Tab

   
Artist: LiveonRelease
Title: Get With It
Album: Seeing Red / 2001

Standard Tuning - Low to High: E, A, D, G, B, E

Verse

e|------------------------------|
b|------------------------------|
g|--7-7---------9-9-9-----------|
d|--7-7--7-7-7--9-9-9--4-4-4-4--|
a|--5-5--7-7-7--7-7-7--4-4-4-4--|
e|-------5-5-5---------2-2-2-2--|

Chorus 
[ Tab from: http://www.guitartabs.cc/tabs/l/liveonrelease/get_with_it_tab.html ]
e|--------------------------------------------------|
b|--------------------------------------------------|
g|--7-7-------9-9-----------7-7-------9-9-----------|
d|--7-7--7-7--9-9--7-7------7-7--7-7--9-9--7-7-7-7--|
a|--5-5--7-7--7-7--7-7------5-5--7-7--7-7--7-7-7-7--|
e|-------5-5-------5-5-----------5-5-------5-5-5-5--|

Order:

Verse: 12x

Chorus: 2x

Verse: 8x

Chorus: 2x

Verse: 10x

Chorus: 4x


				|------------------------------------------------------|
				|-------------Transcribed by Adam Baumann--------------|
				|------------------------------------------------------|
Comments