Liveonrelease - Emotional Griptape Chords & Tabs

 

Emotional Griptape Chords & Tabs

Liveonrelease Chords & Tabs

Version: 1 Type: Tab 0 ratings
1 star 2 stars 3 stars 4 stars 5 stars
comments

Emotional Griptape Tab

Song: Emotional Griptape
Artist: LiveonRelease
Album: Seeing Red
As tabbed by Joe Muggah	

Intro
e--------------------------------------------------------
B--------------------------------------------------------
G----------------------------------------5-5-5-5-5-5-----
D-5-5-5-5-5-5--5-5-5-5-5-5--2-2-2-2-2-2--5-5-5-5-5-5-----
A-5-5-5-5-5-5--5-5-5-5-5-5--2-2-2-2-2-2--3-3-3-3-3-3-----
E-3-3-3-3-3-3--2-2-2-2-2-2--0-0-0-0-0-0------------------

Verse (each hit 8 times and palm muted)
e--------------------------------------------------------
B--------------------------------------------------------
G-------------5---------------5--------------------------
D-5---5---2---5---5---5---2---5--------------------------
A-5---5---2---3---5---5---2---3--------------------------
E-3---2---0-------3---2---0------------------------------
("You lose, I choose...")
[ Tab from: http://www.guitartabs.cc/tabs/l/liveonrelease/emotional_griptape_tab.html ]
Pre-Chorus
e--------------------------------------------------------
B--------------------------------------------------------
G-9-----------------9------------------------------------
D-9---9---10---7----9---9---10-------12------------------
A-7---9---10---7----7---9---10-(x7)--12-(x7)-------------
E-----7----8---5--------7----8-------10------------------
("Skater boy you listen up...")

Chorus (each hit 16 times)
e--------------------------------------------------------
B--------------------------------------------------------
G-2---5-------7----2---5-------7-------------------------
D-2---5---5---7----2---5---5---7-------------------------
A-0---3---5---5----0---3---5---5-------------------------
E---------3----------------3-----------------------------
("Emotional griptape...")

Bridge (each hit 8 times)           Fill 
e---------------------------------|----------------------
B---------------------------------|-0--3--0--7--0--3^----
G---------7----------------7---7--|----------------------
D-2---5---7---7----2---5---7---7--|----------------------
A-2---5---5---7----2---5---5---5--|----------------------
E-0---3-------5----0---3----------|----------------------
("Your independent...")

Intro
Verse
Pre-Chorus
Chorus
Verse
Pre-Chorus
Chorus
Bridge, Fill
Chorus, Fill
Comments