Liveonrelease - Dont Leave Me Alone Chords & Tabs

 

Dont Leave Me Alone Chords & Tabs

Liveonrelease Chords & Tabs

Version: 1 Type: Tab 0 ratings
1 star 2 stars 3 stars 4 stars 5 stars
comments

Dont Leave Me Alone Tab

   
Artist: LiveonRelease
Title: Don't Leave Me Alone
Album: Seeing Red / 2001

Standard Tuning - Low to High: E, A, D, G, B, E

Pre-Chorus 1 - 4x

|-----------------------------|
|-----------------------------|
|-----------------------------|
|--------6-6---------6-6-6-6--|
|--3-3---4-4--6-6-6--4-4-4-4--|
|--1-1--------4-4-4-----------|

Chorus - 2x

|----------------------------------------------------------------------|
|----------------------------------------------------------------------|
|----------------------------------------------------------------------|
|----------------------------------------------------------------------|
|--3-3-3-3-3-3-3-3--6-6-6-6-6-6-6-6--3-3-3-3-3-3-3-3--6-6-6-6-6-6-6-6--|
|--1-1-1-1-1-1-1-1--4-4-4-4-4-4-4-4--1-1-1-1-1-1-1-1--4-4-4-4-4-4-4-4--|

Pre-Chorus 2 - 2x
[ Tab from: http://www.guitartabs.cc/tabs/l/liveonrelease/dont_leave_me_alone_tab.html ]
|----------------------------------------------------------------------|
|----------------------------------------------------------------------|
|----------------------------------------------------------------------|
|-------------------6-6-6-6-6-6-6-6-------------------6-6-6-6-6-6-6-6--|
|--3-3-3-3-3-3-3-3--4-4-4-4-4-4-4-4--6-6-6-6-6-6-6-6--4-4-4-4-4-4-4-4--|
|--1-1-1-1-1-1-1-1-------------------4-4-4-4-4-4-4-4-------------------|

(Pre-Chorus 1 - 4x)

(Chorus - 2x)

Interlude

|---------------------------------------------------------------------------------------------------------------------------------------|
|---------------------------------------------------------------------------------------------------------------------------------------|
|---------------------------------------------------------------------------------------------------------------------------------------|
|--3-3-3-3-3-3-3-3-------------------3-3-3-3-3-3-3-3------------------------------------3-3-3-3-3-3-3-3--5-5-5-5-5-5-5-5-5-5-5-5-5-5-5--|
|--1-1-1-1-1-1-1-1--3-3-3-3-3-3-3-3--1-1-1-1-1-1-1-1--3-3-3-3-3-3-3-3--6-6-6-6-6-6-6-6--1-1-1-1-1-1-1-1--3-3-3-3-3-3-3-3-3-3-3-3-3-3-3--|
|-------------------1-1-1-1-1-1-1-1-------------------1-1-1-1-1-1-1-1--4-4-4-4-4-4-4-4--------------------------------------------------|

(Chorus - 4x)

Play F5 once as the last chord of the song and let ring until fade.

					|------------------------------------------------------|
					|-------------Transcribed by Adam Baumann--------------|
					|------------------------------------------------------|

Comments