Live - White Discussion Chords & Tabs

 

White Discussion Chords & Tabs

Live Chords & Tabs

Version: 1 Type: Bass Tab 0 ratings
1 star 2 stars 3 stars 4 stars 5 stars
comments

White Discussion Bass Tab

To the webmaster of BTA:
This is a correction from the original file and contains no part of the 
original submission to this archive.

----------------------------------------------------------------------
Artist:	Live
Album:	Throwing Copper
Song:	White Discussion

To play this bass line you will need to tune your guitar down one half 
step. To do this you will need to play a D# on the A string (6th fret), 
tune your E string accordingly and tune the rest of the strings to the E 
string.

The whole song is in 4|4 time.

Main riff: repeat this over and over throughout the song.

G|--------|--------|--------|--------|--------|--------
D|--------|--------|--------|--------|--------|--------
A|--------|7-7-5---|-5-4----|-4-3----|-3H5----|--------
E|1\12/1--|-0----0-|-----0--|-----0--|--------|--------
[ Tab from: http://www.guitartabs.cc/tabs/l/live/white_discussion_btab.html ]
G|--------|--------|--------|--------|--------
D|--------|--------|--------|--------|--------
A|7-7-5---|-5-4----|-4-3----|-S3\4\S5-|--------
E|-0----0-|-----0--|-----0--|--------|--------

G|--------|--------|--------|--------
D|--------|--------|--------|--------
A|7-7-5---|-5-4----|-4-3----|-3H5----
E|-0----0-|-----0--|-----0--|--------

You then play this once at the end of a set for the part that goes 
"Though it leaves me quite erect"

G|--------
D|--------
A|-7-5----
E|-----7-0

The last variation is the very loud part after "This is what we said!"

G|------------------------
D|------------------------
A|-5H77777-3-2-0----------
E|------------------------

H = Hammer on
S = slap
\ = slide up
/ = slide down 
----------------------------------------------------------------------

The original file had alot of inherant problems and none of it was used 
in the making of this new submission.

Sincerely,
Sam Burdick

Comments