Live - Turn My Head Chords & Tabs

 

Turn My Head Chords & Tabs

Live Chords & Tabs

Version: 2 Type: Tab 0 ratings
1 star 2 stars 3 stars 4 stars 5 stars
comments

Turn My Head Tab

Live  - Secret Samadhi
song: Turn My Head
tabbed by Mitchell w fjrivnghy@hotmail.com


tune 1/2 step down

[ Tab from: http://www.guitartabs.cc/tabs/l/live/turn_my_head_tab_ver_2.html ]
e|-------------0------|--------------3-0>-|--------0>-------------1>-----
B|------1---------1---|-------1-0h1-------|-----------0--------------1---
G|-----------0------0-|-------------------|-------------0--------------0-
D|----2---0-----------|----2--------------|-----2--------------3---------
A|-3------------------|-0-----------------|---2--------------3-----------
E|--------------------|-------------------|-0--------------1-------------

e|--------------0-----|-------------3-0--|--------0>-------------1>-----
B|-----1---1h3----3-1-|-----1-0h1--------|-----------0--------------1---
G|-------0------------|------------------|-------------0--------------0-
D|---2----------------|---2--------------|-----2--------------3---------
A|-3------------------|-0----------------|---2--------------3-----------
E|--------------------|------------------|-0--------------1-------------

more coming...
Comments