Live - Turn My Head Chords & Tabs

 

Turn My Head Chords & Tabs

Live Chords & Tabs

Version: 1 Type: Tab 2 ratings
1 star 2 stars 3 stars 4 stars 5 stars
comments

Turn My Head Tab

   
#----------------------------------PLEASE NOTE---------------------------------#
#This file is the author's own work and represents their interpretation of the #
#song. You may only use this file for private study, scholarship, or research. #
#------------------------------------------------------------------------------#
#


From mease@dialnet.net Sun Apr 27 11:32:07 1997
Date: Sat, 12 Apr 1997 10:44:27 -0500
From: Derek Mease 
To: guitar@olga.net
Subject: TAB:"Turn My Head" by Live

Turn My Head
Artist: Live
Album: Secret Samadhi
Transcribed by Derek Mease
Email:  mease@dialnet.net

  Well, this is what I came up with. Just like every other Live song, each string is tuned 1/2 step down. It
sounds really good if you crank up the chorus while playing the intro and verses.

INTRO:
C                                                    Am7
|----------------------------1-----------------------|----------------------------------3-----0--------------|
|--------------1--------------------0----------------|-----------------1---0---1-----------------------------|
|-------------------------0------------------0-------|-------------------------------------------------------|
|---------2-------2----------------------------------|------------2------------------------------------------|
|----3-----------------------------------------------|------0------------------------------------------------|
|----------------------------------------------------|-------------------------------------------------------|

Em                                                   F
|------------------0---------------------------------|-------------------1-----------------------------------|
|-----------------------------0----------------------|--------------1----------------1-----------------------|
|-------------0------------------------0-------------|--------2--------------------------------0-------------|
|---------2------------------------------------------|----3--------------------------------------------------|
|----2-----------------------------------------------|-------------------------------------------------------|
|----------------------------------------------------|-------------------------------------------------------|

C                                                    Am7
|----------------------------0-----------------------|---------------------------------3----0----------------|
|-------------1------1 h 3------3-------1------------|----------------1---0---1------------------------------|
|----------------------------------------------------|-------------------------------------------------------|
|--------2-------------------------------------------|----------2--------------------------------------------|
|---3------------------------------------------------|----0--------------------------------------------------|
|----------------------------------------------------|-------------------------------------------------------|

Em                                                   F
|------------------0---------------------------------|-------------------1-----------------------------------|
|-----------------------------0----------------------|--------------1----------------1-----------------------|
|-------------0------------------------0-------------|--------2--------------------------------0-------------|
|---------2------------------------------------------|----3--------------------------------------------------|
|----2-----------------------------------------------|-------------------------------------------------------|
|----------------------------------------------------|-------------------------------------------------------|


VERSE:
      The verse is  the same as the intro with a few changes. You should be able to figure it out by listening
to the song.

CHORUS:

C
turn my head

C  Em  Am
          turn my head

G7                F
    it's aimed at you

  The first chorus is followed by this little riff:

C
|---0------------------------------------------------|--------------------------------------------------------|
|---1-------------------------0---1-------3----------|---0----1-----------------------------------------------|
|---0------------------------------------------------|--------------------------------------------------------|
|---2------------------------------------------------|--------------------------------------------------------|
|---3------------------------------------------------|--------------------------------------------------------|
|----------------------------------------------------|--------------------------------------------------------|

BRIDGE:

F   Em
oh, no

Em         F            Em
we came to love you all day

Em                 F
these bastards are leavin'

F                 Em
somebody's got to stay

Em          F
whatever we called you

F           G7
it's just a name, just a name

SOLO:
[ Tab from: http://www.guitartabs.cc/tabs/l/live/turn_my_head_tab.html ]
|-----------------------------------------------------|--------------------------------------------------------|
|-----10----8-----------------10------8---------------|--8 h 10 p 9--------------------------------------------|
|------------------9----------------------------------|-------------------9 h 10 p 9-------9 h 10 p 9----------|
|-----------------------------------------------------|--------------------------------------------------------|
|-----------------------------------------------------|--------------------------------------------------------|
|-----------------------------------------------------|--------------------------------------------------------|

|-----------------------------------------------------|---------------------------------------8----------------|
|---------------------10------------------------10----|--------8--8--8--------8 h 10---------------------------|
|--9 h 10 p 9---------------9---------8---------------|---8----------------------------------------------------|
|-----------------------------------------------------|--------------------------------------------------------|
|-----------------------------------------------------|--------------------------------------------------------|
|-----------------------------------------------------|--------------------------------------------------------|

|--8--8------10-------8-------------------------------|--------------------------------------------------------|
|----------------------------------10---------8-------|----------10------10------10---------8------------------|
|-----------------------------------------------------|---9------10------10------10---------8------------------|
|-----------------------------------------------------|--------------------------------------------------------|
|-----------------------------------------------------|--------------------------------------------------------|
|-----------------------------------------------------|--------------------------------------------------------|

|-----------------------------------------------------|
|----8------------------5-----------------------------|
|----8------5 h 7-------5-----------------------------|
|-----------------------------------------------------|
|-----------------------------------------------------|
|-----------------------------------------------------|

  It then picks up at the second line of the chorus (C, Am, Em, etc.).

Well, I hope you can piece together the song from what I gave you. I play the intro and verses with a lot of
chorus, and use light distortion for the chorus and solo parts.

 
 Transcribed by Derek Mease 1997
 mease@dialnet.net



From peter@sans.vuw.ac.nz Sun Apr 27 11:32:31 1997
Date: Fri, 21 Mar 1997 21:43:11 +1200 (NZST)
From: Peter Shackleton 
To: guitar@olga.net
Subject: TAB: Turn My Head, by Live

 Turn My Head
 ------------
 
 Written and performed by Live
 
 From the Secret Samadhi album, published by Radioactive Records,
 RARD-11590.
 
 Transcribed by Peter Shackleton - peter@sans.vuw.ac.nz
 
 Tune down 1/2 step
 
 Guitar 1 plays Chords
 
 Guitar 2 plays throughout verses:
 
   C       G         E       F
 e----0-----------3-0--0-------1----
 B--1---1---1-0-1--------0-------1--
 G-------0-----------------0-------0
 D----------------------------------
 A-3-3------------------------------
 E---------3---------0-------1------
 
 With a little inventiveness you can play a pretty good simulation
 on just one guitar, by playing the bottom two or three strings as
 straight open chords and the top three strings as above during the
 verses
 
 [verse]
 C      G    E               F
  anyone,     caught in your mystery
 C        G
  keep it angry
 E        F
  keep it whispy
 C            G
  I've fallen down
 E              F      Fm
  Drunk on your juices                 
                                      
 [chorus1]
                                      C     Am
 C            (1)            (1) = e--0--0--0
  Turn my head                     B--1--1--1
 Am                                G--0--0--2
  Turn my head                     D--2--0--2
 G              F   C              A--3--2--0
  it's aimed at you                E---------
 
 [verse]
 funky temple
 your dress is torn to shreds
 your eyes are crazy
 I bowed to save my head and
 I can't forget you
 but I can't remember
 
 [chorus2]
 
 C           (1)
 turn my head
 Am
 turn my head
 G             F
 it's aimed at you
 
 [bridge]
    E
 oh no
             F            E
 we came to love you all day
                    F
 these bastards are leavin'
                   E
 somebody's got to stay
             F
 whatever we called you
             G
 it's just a name
 just a name
 
 
 [solo over chorus chords]
 
 [chorus1] x2




***
Peter Shackleton (peter@sans.vuw..ac.nz), Wellington, NEW ZEALAND
Confidence: the feeling you get before you understand the situation.
***
Comments