Live - Turn My Head Chords & Tabs

 

Turn My Head Chords & Tabs

Live Chords & Tabs

Version: 2 Type: Bass Tab 0 ratings
1 star 2 stars 3 stars 4 stars 5 stars
comments

Turn My Head Bass Tab

Turn my Head
by: Live from the album "Secret Samadhi"
transcribed by: Leo Angelo Lopez
2-29-00
ts: 1:12pm
te: 1:39pm

Intro: after the first bar

G|-------------------|
D|-------------------|
A|--3--2-/7--8--10\--|
E|-------------------|

Stanza 1:

G|------------------------------------------------|
D|------------------------------------------------|
A|--3--3--3-3--2--2--2-2--/7--7--7-7--8--8--8-8\--|
E|------------------------------------------------|

G|----------------------------------------------------|
D|----------------------------------------------------|
A|--3--3--3-3--2--2--2-2--/7--7--7-7--8--8--8-8--10\--|
E|----------------------------------------------------|

G|-----------------------------------------10--10h12-13-12-10h12-10\-|
D|--------------------------------------8/---------------------------|
A|--3--3--3-3--2--2--2-2--/7--7--7-7--8------------------------------|
E|-------------------------------------------------------------------|

Chorus 1: (w/ cho. variation 1)
[ Tab from: http://www.guitartabs.cc/tabs/l/live/turn_my_head_btab_ver_2.html ]
G|----------------------------------------------------------------|
D|----------------------------------------------------------------|
A|--3\---x-2--3-3--2--3--2----------------------------------------|
E|-----3--------------------5-0-x-3--5-5--5-5--3--x3-3--1--x1-1/--|

Cho. Variation 1:

G|-------------4h5--|
D|----0h2-5--5------|
A|--3---------------|
E|------------------|

Stanza 2: (same as Stanza 1)

Chorus 2: (2x w/ cho. variation 2)

Cho. Variation 2:

G|----------------|
D|----------------|
A|----------------|
E|--/13--13--13\--|

Bridge:

G|------------------------| (3x)
D|------------------------|
A|--7--7--7-7--8--8--8-8--|
E|------------------------|

G|---------------------------------------------------|
D|----------------------------------10-10------------|
A|-/10-10-10-10--10-10-10-10--10h12-------10h12-10\--|
E|---------------------------------------------------|

Adlib: (same as Chorus w/ no variations)

Last Chorus: (2x w/ cho. variation 1)


Any questions?
Just email me at kleng2@hotmail.com or kleng29@listbot.com
Comments