Live - The Dolphins Cry Chords & Tabs

 

The Dolphins Cry Chords & Tabs

Live Chords & Tabs

Version: 2 Type: Tab 0 ratings
1 star 2 stars 3 stars 4 stars 5 stars
comments

The Dolphins Cry Tab

   
Live - Dolphins Cry 
   tabbed by Chris Marks 
   vvhat_is@hotmail.com 

   The problem with tabbing this song is that every time through each part 
   of it is different, so you have to tab out every single second of the song. 
   It was a pain in the ass, but here it is. Took me about 4 hours, but hell, 
   it was worth it for the satisfaction if nothing else. 

   Verse 1 

   gtr 1 
   E|----------------|---3------------|---3------------|----------------| 
   b|----------------|---4------------|---4------------|----------------| 
   g|----------------|5-5---5---------|5-5---5---------|----8--8-----a--| 
   d|----------------|5-5---3---------|5-5---3---------|8---8-88-aa-aa--| 
   a|----------------|3-3-------------|3-3-------------|6---6-66-88-888-| 
   e|----------------|----------------|----------------|----------------| 
   The way... Reminds... God... Rooose... 

   gtr 1 
   E|---3------------|---3------------|---3------------|----------------| 
   b|---4------------|---4------------|---4------------|----------------| 
   g|5-5---5---------|5-5--55--5------|5-5---5---------|----8-88-----a--| 
   d|5-5--33---------|5-5---3---3-----|5-5--33---------|8---8-88-aa-aa--| 
   a|3-3-------------|3-3-------------|3-3-------------|6---6-66-88-888-| 
   e|----------------|----------------|----------------|----------------| 
   gtr 2 
   E|----------------|----------------|----------------|----------------| 
   b|-------------444|-------------444|-------------444|----------------| 
   g|----------------|----------------|----------------|----------------| 
   d|----------------|----------------|----------------|----------------| 
   a|----------------|----------------|----------------|----------------| 
   e|----------------|----------------|----------------|----------------| 
   trust... with... some... looost... 

   gtr 1 
   E|---3------------|---3------------|---3------------|----------------| 
   b|---4------------|---4------------|---4------------|----------------| 
   g|5-5--55---------|5-5--55---------|5-5---5---------|----8-88-----a--| 
   d|5-5---3---------|5-5---3---------|5-5---3---------|8---8-88-aa-aa--| 
   a|3-3-------------|3-3-------------|3-3-------------|6---6-66-88-888-| 
   e|----------------|----------------|----------------|----------------| 
   gtr 2 
   E|----------------|----------------|----------------|b-------bd--f---| 
   b|b---------------|b---------------|b---------------|----------------| 
   g|------8---------|------8---------|------8---88----|----------------| 
   d|----------------|----------------|----------------|----------------| 
   a|----------------|----------------|----------------|----------------| 
   e|----------------|----------------|----------------|----------------| 
   peace... so when... come... meeee... 

   gtr 1 
   E|----------------| 
   b|----------------| 
   g|----------------| 
   d|3---------------| 
   a|--3-------------| 
   e|--1-------------| 
   gtr 2 
   E|----------------| 
   b|----------------| 
   g|a~~~~~~~~~~~~\\\| 
   d|----------------| 
   a|----------------| 
   e|----------------| 
   to me... 

   Chorus 1 

   gtr 1 
   E|----------------|----------------|----------------|----------------| 
   b|----------------|----------------|----------------|----------------| 
   g|5-5-5-55-33--33-|----------------|5-5-5-55-33--33-|----------------| 
   d|5-5-5-55-33--332|3---3-33-33--33-|5-5-5-55-33--332|3-3-3-33-33--33-| 
   a|3-3-3-33-11--112|3---3-33-33--33-|3-3-3-33-11--112|3-3-3-33-33--33-| 
   e|---------------0|1---1-11-11--11-|---------------0|1-1-1-11-11--11-| 
   gtr 2 
   E|----------------|----------------|----------------|----------------| 
   b|----------------|----------------|----------------|----------------| 
   g|----------------|----------------|----------------|--------a(bnd)ba| 
   d|----------------|----------------|----------------|----------------| 
   a|----------------|----------------|----------------|----------------| 
   e|----------------|----------------|----------------|----------------| 
   love.. alright.. love.. can.. dolphins..see.. 

   gtr 2 
   E|----------------|----------------|--------| 
   b|----------------|----------------|--------| 
   g|5-5-5-55-33-3---|----------------|--------| 
   d|5-5-5-55-33-3-2-|3---------------|--------| 
   a|3-3-3-33-11-1-2-|3---------------|--------| 
   e|--------------0-|1---------------|--------| 
   in.. breathe..love.. 

   Verse 2 

   gtr 1 
   E|---3------------|---3------------|---3------------|----------------| 
   b|---4------------|---4------------|---4------------|----------------| 
   g|5-5---5---------|5-5---5---------|5-5---5---------|----8-88-----a--| 
   d|5-5---3---------|5-5--33---------|5-5--33---------|8---8-88-aa-aa--| 
   a|3-3-------------|3-3-------------|3-3-------------|6---6-66-88-888-| 
   e|----------------|----------------|----------------|----------------| 
   gtr 2 
   E|----------------|----------------|----------------|b---b-bbbd-ddf--| 
   b|----------------|b---------------|b---------------|----------------| 
   g|-------------888|------8------888|------8------888|----------------| 
   d|----------------|----------------|----------------|----------------| 
   a|----------------|----------------|----------------|----------------| 
   e|----------------|----------------|----------------|----------------| 
   oh... it's... time... dreeeam... 

   gtr 1 
   E|---3------------|---3------------|---3------------|----------------| 
   b|---4------------|---4------------|---4------------|----------------| 
   g|5-5--55---------|5-5--55---------|5-5---5---------|----8-88-----a--| 
   d|5-5---3---------|5-5---3---------|5-5---3---------|8---8-88-aa-aa--| 
   a|3-3-------------|3-3-------------|3-3-------------|6---6-66-88-888-| 
   e|----------------|----------------|----------------|----------------| 
   gtr 2 
   E|----------------|----------------|----------------|b-------bd--f---| 
   b|b---------------|b---------------|b---------------|----------------| 
   g|------8------888|------8------888|------8------888|----------------| 
   d|----------------|----------------|----------------|----------------| 
   a|----------------|----------------|----------------|----------------| 
   e|----------------|----------------|----------------|----------------| 
   place... you... all... breeeathe... 

   E|--------c~~~~~~~|----------------| 
   b|----------------|----------------| 
   g|a~~~~~~~~~~~~~~~|a(bend)-c----a8a| 
   d|----------------|----------------| 
   a|----------------|----------------| 
   e|----------------|----------------| 
   me breathe... 

   Chorus 2 

   gtr 1 
   E|----------------|----------------|----------------|----------------| 
   b|----------------|----------------|----------------|----------------| 
   g|5-5-5-55-33--33-|----------------|5-5-5-55-33--33-|----------------| 
   d|5-5-5-55-33--332|3---3-33-33--33-|5-5-5-55-33--332|3-3-3-33-33--33-| 
   a|3-3-3-33-11--112|3---3-33-33--33-|3-3-3-33-11--112|3-3-3-33-33--33-| 
   e|---------------0|1---1-11-11--11-|---------------0|1-1-1-11-11--11-| 
   gtr 2 (softly until here) 
   E|----------------|----------------|----------------|----------------| 
   b|----------------|----------------|----------------|----------------| 
   g|a---8-----------|a---------------|----------------|--------a(bnd)b\| 
   d|-------8a--/a---|----------------|a-------cdc-a-8-|a---------------| 
   a|----------------|----------------|----------------|----------------| 
   e|----------------|----------------|----------------|----------------| 
   love.. alright.. love.. can.. dolphins..see.. 

   gtr 1 
   E|----------------|----------------| 
   b|----------------|----------------| 
   g|5-5-5-55-33-3---|----------------| 
   d|5-5-5-55-33-3-2-|3--3x3----------| 
   a|3-3-3-33-11-1-2-|3--3x3----------| 
   e|--------------0-|1--1x1----------| 
   in.. breathe.. love.. 

   Bridge 1: 

   gtr 1 
   E|----------------|----------------|----------------|----------------| 
   b|----------------|----------------|----------------|----------------| 
   g|3---3--3-33-----|3---3--3-33-----|----------------|----------------| 
   d|1---1--1-11-----|3---3--3-33-----|6--66-66-66-6-6-|3--3xx3---------| 
   a|1---1--1-11-----|1---1--1-11-----|6--66-66-66-6-6-|3--3xx3---------| 
   e|----------------|----------------|4--44-44-44-4-4-|1--1xx1---------| 
   gtr 2 
   E|----------------|----------------|----------------|----------------| 
   b|----------------|----------------|----------------|----------------| 
   g|c~~~~~~~~~~~~~~~|a-c-a-c---------|a-a-a-a-aaaaaaaa|a---xxa---------| 
   d|----------------|----------------|----------------|----------------| 
   a|----------------|----------------|----------------|----------------| 
   e|----------------|----------------|----------------|----------------| 
   uuus... shooting... who... cover... 
[ Tab from: http://www.guitartabs.cc/tabs/l/live/the_dolphins_cry_tab_ver_2.html ]
   gtr 1 
   E|----------------|----------------|----------------|----------------| 
   b|----------------|----------------|----------------|----------------| 
   g|3---3--3-33-----|3---3--3-33-----|----------------|----------------| 
   d|1---1--1-11-----|3---3--3-33-----|6--66-66-66-6-6-|3--3xx3---------| 
   a|1---1--1-11-----|1---1--1-11-----|6--66-66-66-6-6-|3--3xx3---------| 
   e|----------------|----------------|4--44-44-44-4-4-|1--1xx1---------| 
   gtr 2 
   E|----------------|----------------|----------------|----------------| 
   b|----------------|----------------|----------------|----------------| 
   g|c~~~~~~~~~~~~~~~|7-8-7---7---7---|a-a-a-a-a-------|------a^b~~~~~~~| 
   d|----------------|------8---------|----------------|----------------| 
   a|----------------|----------------|----------------|----------------| 
   e|----------------|----------------|----------------|----------------| 
   we... phoenix... all... over... 

   gtr 2 
   E|----------------| 
   b|----------------| 
   g|~~~~~~~~~\a-----| 
   d|----------------| 
   a|----------------| 
   e|----------------| 


   Solo: 

   gtr 1 
   E|---3------------|---3------------|---3------------|----------------| 
   b|---4------------|---4------------|---4------------|----------------| 
   g|5-5--55---------|5-5--55---------|5-5---5--4------|----8-88-----a--| 
   d|5-5---3---------|5-5---3---------|5-5--33-0-------|8---8-88-aa-aa--| 
   a|3-3-------------|3-3-------------|3-3-------------|6---6-66-88-888-| 
   e|----------------|----------------|----------------|----------------| 
   gtr 2 /3 \ 
   E|----------------|----------------|----------------|------------dfdf| 
   b|----------------|-b--------------|----------------|----------------| 
   g|----------------|--ac------------|----------------|--a-aa-aa/c-----| 
   d|------------ddd-|------------dddd|---------dd--dd-|----------------| 
   a|----------------|----------------|----------------|----------------| 
   e|----------------|----------------|----------------|----------------| 
   over... over... singin... 
   gtr 2 
   E|----------------| 
   b|----------------| 
   g|----------------| 
   d|------d---------| 
   a|----------d-----| 
   e|------------d---| (use LOTS of fuzz and play with the pedal last note) 
   come... 

   Chorus 3 

   gtr 1 
   E|----------------|----------------|----------------|----------------| 
   b|----------------|----------------|----------------|----------------| 
   g|5-5-5-55-33--33-|----------------|5-5-5-55-33--33-|----------------| 
   d|5-5-5-55-33--332|3---3-33-33--33-|5-5-5-55-33--332|3-3-3-33-33--33-| 
   a|3-3-3-33-11--112|3---3-33-33--33-|3-3-3-33-11--112|3-3-3-33-33--33-| 
   e|---------------0|1---1-11-11--11-|---------------0|1-1-1-11-11--11-| 
   gtr 2 
   E|----------------|----------------|----------------|----------------| 
   b|----------------|----------------|----------------|----------------| 
   g|----------------|----------------|----------------|--------a-a-a-a-| 
   d|a~~~~~~~~~~~~~~~|----------------|a-------cdc-a-//|d-----/---------| 
   a|----------------|8~~~~~~~~~~~~~~~|----------------|----------------| 
   e|----------------|----------------|----------------|----------------| 
   love.. alright.. love.. can.. dolphins..see.. 

   gtr 1 
   E|----------------|----------------| 
   b|----------------|----------------| 
   g|5-5-5-55-33-3---|----------------| 
   d|5-5-5-55-33-3-2-|3--3x3----------| 
   a|3-3-3-33-11-1-2-|3--3x3----------| 
   e|--------------0-|1--1x1----------| 
   gtr 2 
   E|----------------|----------------| 
   b|----------------|----------------| 
   g|----------------|----------------| 
   d|a~~~~~~~~~~~~~~~|----------------| 
   a|----------------|8~~~~~~~~~~~~~~~| 
   e|----------------|----------------| 
   in.. love... 

   Bridge 2: 

   gtr 1 
   E|----------------|----------------|----------------|----------------| 
   b|----------------|----------------|----------------|----------------| 
   g|3---3--3-33-----|3---3--3-33-----|----------------|----------------| 
   d|1---1--1-11-----|3---3--3-33-----|6--66-66-66-6-6-|3--3xx3---------| 
   a|1---1--1-11-----|1---1--1-11-----|6--66-66-66-6-6-|3--3xx3---------| 
   e|----------------|----------------|4--44-44-44-4-4-|1--1xx1---------| 
   gtr 2 
   E|abbbbbbbabbbbbbb|abbbbbbbabbbbbbb|abbbbbbbabbbbbbb|------d///e\d---| 
   b|----------------|----------------|----------------|----------------| 
   g|----------------|----------------|----------------|a--a------------| 
   d|----------------|----------------|----------------|----------------| 
   a|----------------|----------------|----------------|----------------| 
   e|----------------|----------------|----------------|----------------| 
   uuus... shooting... who... cover... 

   gtr 1 
   E|----------------|----------------|----------------|----------------| 
   b|----------------|----------------|----------------|----------------| 
   g|3---3--3-33-----|3---3--3-33-----|----------------|----------------| 
   d|1---1--1-11-----|3---3--3-33-----|6--66-66-66-6-6-|3--3xx3---------| 
   a|1---1--1-11-----|1---1--1-11-----|6--66-66-66-6-6-|3--3xx3---------| 
   e|----------------|----------------|4--44-44-44-4-4-|1--1xx1---------| 
   gtr 2 
   E|abbbbbbbabbbbbbb|abbbbbbbabbbbbbb|abbbbbbbabbbbbbb|----------------| 
   b|----------------|----------------|----------------|a--b------------| 
   g|----------------|----------------|----------------|------a--/b--\a-| 
   d|----------------|----------------|----------------|----------------| 
   a|----------------|----------------|----------------|----------------| 
   e|----------------|----------------|----------------|----------------| 
   we... phoenix... all... over... 

   gtr 1 
   E|----------------|----------------|----------------| 
   b|----------------|----------------|----------------| 
   g|----------------|----------------|----------------| 
   d|3--3xx3---------|3--3xx3---------|3--3xx3---------| 
   a|3--3xx3---------|3--3xx3---------|3--3xx3---------| 
   e|1--1xx1---------|1--1xx1---------|1--1xx1---------| 
   gtr 2 
   E|----------------|----------------|----------------| 
   b|a--b------------|a--b------------|----------------| 
   g|------a-~~~~~~~~|------a--/b--\a-|---a--a-~~~~~~~~| 
   d|----------------|----------------|----------------| 
   a|----------------|----------------|----------------| 
   e|----------------|----------------|----------------| 
   over... over... over... 

   Chorus 4 

   gtr 1 
   E|----------------|----------------|----------------|----------------| 
   b|----------------|----------------|----------------|----------------| 
   g|5-5-5-55-33--33-|----------------|5-5-5-55-33--33-|----------------| 
   d|5-5-5-55-33--332|3---3-33-33--33-|5-5-5-55-33--332|3-3-3-----------| 
   a|3-3-3-33-11--112|3---3-33-33--33-|3-3-3-33-11--112|3-3-3-----------| 
   e|---------------0|1---1-11-11--11-|---------------0|1-1-1-----------| 
   gtr 2 
   E|----------------|----------8-8-8-|----------------|----------------| 
   b|----------------|----------------|----------------|----------------| 
   g|----------------|----------------|----------------|----------------| 
   d|a~~~~~~~~~~~~~~~|----------------|a-------cda-----|----------------| 
   a|----------------|8~~~~~~~~~~~~~~~|----------------|8-----------3/f-| 
   e|----------------|----------------|----------------|----------------| 
   love.. alright.. love.. can.. dolphins..see.. 

   gtr 1 (fadeout) 
   E|----------------|----------------|----------------|----------------| 
   b|----------------|----------------|----------------|----------------| 
   g|5-5-5-55-33-3---|----------------|5-5-5-55-33-3---|----------------| 
   d|5-5-5-55-33-3-2-|3--3x3----------|5-5-5-55-33-3-2-|3---3---3---3---| 
   a|3-3-3-33-11-1-2-|3--3x3----------|3-3-3-33-11-1-2-|3---3---3---3---| 
   e|--------------0-|1--1x1----------|--------------0-|1---1---1---1---| 
   gtr 2 
   E|----------------|----------------|----------------|----------------| 
   b|----------------|----------------|----------------|----------------| 
   g|----------------|----------------|----------------|----------------| 
   d|a~~~~~~~~~~~~~~~|----------------|a~~~~~~~~~8~8~~~|----------------| 
   a|----------------|8~~~~~~~~~~~~~~~|----------------|8~~~~~~~~~~~~~~~| 
   e|----------------|----------------|----------------|----------------| 
   in.. love... alright... yeah. 

   Full Lyrics: 

   Verse 1: 
   The way you're bathed in light, 
   Reminds me of that night, 
   God laid me down into your rose garden of trust. 
   And I was swept away, 
   With nothin' left to say, 
   Some helpless fool, yeah I was lost in a swoon of peace. 
   You're all I need to find, 
   So when the time is right, 
   Come to me sweetly, come to me, come to me 

   Chorus: 
   Love will lead us, alright. 
   Love will lead us, she will lead us. 
   Can you hear the dolphins cry? 
   See the road rise up to meet us. 
   It's in the air we breathe tonight, 
   Love will lead us, she will lead us. 

   Verse 2: 
   Oh yeah, we meet again, 
   It's like we never left, 
   Time in between was just a dream, did we leave this place? 
   This crazy fog surrounds me, 
   You wrap your legs around me, 
   All I can do to try and breathe, let me breathe so that I 
   So we can go together! 

   Chorus 

   Bridge: 
   Life is like a shooting star, 
   It don't matter who you are, 
   If you only run for cover, it's just a waste of time. 
   We are lost 'til we are found, 
   This phoenix rises up from the ground, 
   And all these wars are over. 

   (voiced over the solo) : 
   over 
   over 
   singin' laaa da da da, da da 
   come to me 

   Chorus (with "over..." added 3 more times on the end) 

   Bridge 

   Chorus 
   alright, she will lead us, yeah 
Comments