Live - The Dolphins Cry Chords & Tabs

 

The Dolphins Cry Chords & Tabs

Live Chords & Tabs

Version: 1 Type: Tab 0 ratings
1 star 2 stars 3 stars 4 stars 5 stars
comments

The Dolphins Cry Tab

T1: Russ O'Reagan, Russlive@netscape.net, Live, The Dolphin's Cry

S1: This is the greatest song ever, I can't wait to get the cd.
The song is tuned down half a step like pretty much all Live songs.  
, 

verse (upstroke 3rd note)
-4-4--4------------------4-4--4-------------------------4-4---------------
-4-4--4------------------4-4--4-------------------------4-4---------------
-6-6--6------------------6-6--6------------4--4-4-4-4-4-4-4--------------
-6-6--6-----7------------6-6--6------7-----4--4-4-4-4-4-4-4--------------
-4-4--4-----7------------4-4--4------7-----2--2-2-2-2-2-2-2--------------
------------5------------------------5------------------------------------



-4-4--4------------------4-4--4-----------------4-4--4---------------------------4-4-----
-4-4--4------------------4-4--4-----------------4-4--4---------------------------4-4-----
-6-6--6------------------6-6--6-----------------6-6--6--------------4--4-4-4-4-4-4-4-----
-6-6--6-----7------------6-6--6------7----------6-6--6-----7--------4--4-4-4-4-4-4-4-----
-4-4--4-----7------------4-4--4------7----------4-4--4-----7--------2--2-2-2-2-2-2-2-----
------------5------------------------5---------------------5-----------------------------
[ Tab from: http://www.guitartabs.cc/tabs/l/live/the_dolphins_cry_tab.html ]
                                                                       
              (distortion kicks in)
-4-4--4------------------4-4--4-----------------4-4--4-------------------------------------------
-4-4--4------------------4-4--4-----------------4-4--4-------------------------------------------
-6-6--6------------------6-6--6-----------------6-6--6--------------4--4-4-4-4-4-4-4-------------
-6-6--6-----7------------6-6--6------7----------6-6--6-----7--------4--4-4-4-4-4-4-4----4---------
-4-4--4-----7------------4-4--4------7----------4-4--4-----7--------2--2-2-2-2-2-2-2----4---------
------------5------------------------5---------------------5----------------------------2---------

chorus
-------------------------------------------------------------------------------------
-------------------------------------------------------------------------------------
-6---6--6-6-x-x-4--4-4--------------------------6---6--6-6-x-x-4--4-4----------------
-6---6--6-6-x-x-4--4-4-0--4--4-4-4-4------------6---6--6-6-x-x-4--4-4-0--4--4-4-4-4--
-4---4--4-4-x-x-2--2-2-0--4--4-4-4-4------------4---4--4-4-x-x-2--2-2-0--4--4-4-4-4--
-----------------------0--2--2-2-2-2--------------------------------0--2--2-2-2-2----


-------------------------------------------------------------------------------------
-------------------------------------------------------------------------------------
-6---6--6-6-x-x-4--4-4--------------------------6---6--6-6-x-x-4--4-4----------------
-6---6--6-6-x-x-4--4-4-0--4--4-4-4-4------------6---6--6-6-x-x-4--4-4-0--4--4-4-4-4--
-4---4--4-4-x-x-2--2-2-0--4--4-4-4-4------------4---4--4-4-x-x-2--2-2-0--4--4-4-4-4--
-----------------------0--2--2-2-2-2----------------------------------0--2--2-2-2-2----



the "life is like a shooting star" part
its getting late and i cant tab anymore so play around with these
chords, you'll get it

-----------------------
-----------------------
-4---------------------
-4---7---4-------------
-2---7---4-------------
-----5---2-------------

Comments