Live - The Distance Chords & Tabs

 

The Distance Chords & Tabs

Live Chords & Tabs

Version: 2 Type: Bass Tab 0 ratings
1 star 2 stars 3 stars 4 stars 5 stars
comments

The Distance Bass Tab

   
Song:      The Distance
Artist:    Live
Album:     The Distance to Here
Tabbed By: Jason Mangan (j.p.mangan@oceanfree.net)

As with almost all Live songs, bass should be detuned a half step, low to high
Eb, Ab, Db, Gb.
[ Tab from: http://www.guitartabs.cc/tabs/l/live/the_distance_btab_ver_2.html ]
Intro:                       (Main Riff)
|----------------|----------------|----------------|                      Song Structure:
|----------------|----------------|----------------|                      Intro
|----------------|------2-3-2-----|----------------|                      Verse
|------5-0---3---|5-----------5-3-|5-----5-0---3---|                      Verse
 1 * 2 * 3 * 4 *  1 * 2 * 3 * 4 *  1 * 2 * 3 * 4 *                        Pre-Chorus A
                                                                          Pre-Chorus B
Verse:                                                           (x2)     Chorus
|----------------|----------------|----------------|----------------|     Verse
|----------------|----------------|----------------|----------------|     Pre-Chorus A
|------2-3-------|----------------|------2-3-------|----------------|     Pre-Chorus B
|5-------------3-|5-----5-0---3---|5-------------3-|5-----5-0---3---|     Pre-Chorus B
 1 * 2 * 3 * 4 *  1 * 2 * 3 * 4 *  1 * 2 * 3 * 4 *  1 * 2 * 3 * 4 *       Chorus
                                                                          Main Riff
Pre-Chorus A:                                                    (x2)     Pre-Chorus B
|------7-7-----7-|7-----7---------|----------------|----------------|     Pre-Chorus B
|----------------|----------------|----------------|----------------|     Pre-Chorus B
|5---------------|----------------|------2-3-------|----------------|     Chorus
|----------------|--------0---3---|5-------------3-|5-----5-0---3---|     Main Riff
 1 * 2 * 3 * 4 *  1 * 2 * 3 * 4 *  1 * 2 * 3 * 4 *  1 * 2 * 3 * 4 * 

Pre-Chorus B:
|------7-7-----7-|7---------------|
|----------------|----------------|
|5---------------|------3-------3-|
|----------------|----------3-----|
 1 * 2 * 3 * 4 *  1 * 2 * 3 * 4 *  

Chorus:
|------7-7-----7-|7---------------|----------------|----------------|
|----------------|----------------|----------------|----------------|
|5---------------|----------------|------2-3-2-----|----------------|
|----------------|--------0---3---|5-----------5-3-|5-----5-0---3---|
 1 * 2 * 3 * 4 *  1 * 2 * 3 * 4 * 1 * 2 * 3 * 4 *  1 * 2 * 3 * 4 *

Pretty close, I think!
Comments