Live - Simple Creed Chords & Tabs

 

Simple Creed Chords & Tabs

Live Chords & Tabs

Version: 3 Type: Tab 0 ratings
1 star 2 stars 3 stars 4 stars 5 stars
comments

Simple Creed Tab

#----------------------------------PLEASE NOTE--------------------------------#
#This file is the author's own work and represents their interpretation of the#
#song. You may only use this file for private study, scholarship, or research.#
#-----------------------------------------------------------------------------#
#-- File created with Instab - http://www.pconline.com/~smcarey/instab.html --#
#-----------------------------------------------------------------------------#

Author/Artist: Live
Title: Simple Creed
Album: V
Transcribed by: Jay Grauf
Email: jay_grauf@hotmail.com

Im pretty sure that this tab is 100%. I dont take any credit for as i got it fro
m the december issue of "Guitar One".
Please rate the tab and tell us wht you think.
If you have any requests email to me.

---------------------------------|--------------------3----3--3--3----|-------
-3---3------------3------3--3--3-|-3--3----3----------3----3--3--3----|-------
-2---2------------0------0--0--0-|-0--2----2----------0----0--0--0----|-------
-0---0---3--2-----x------x--0--3-|-3--0----0----------0----0--0--0----|-------
---------------0--3------3-------|-------------3p2p0--x----x--0--0----|-------
---------------------------------|--------------------3----3----------|-------
 Intro - Distortion   play twice                                              

-|--------------------------------------------|-----------------------------|-
-|--------------------------------------------|-----------------------------|-
-|--------------------------------------------|-----------------------------|-
-|-----------------------3h5--5--5--3h5--0----|-----------------------------|-
-|--3h5--5--5--3h5--5-----------------------0-|-3h5--5---5--5---x--x--x-xxxx|-
-|--------------------------------------------|-----------------------------|-
  Guitar One "Born with yoor back to the God"   play three times              

-|-----------------10/------------------------|----------10\----------------|-
-|-------/10----------------/10---------------|----/10----------/10---------|-
-|--------------------------------------------|-----------------------------|-
-|--------------------------------------------|-----------------------------|-
-|--------------------------------------------|-----------------------------|-
-|--------------------------------------------|-----------------------------|-
 Guitar two "But nobody's taken your candy"      w/slide                      

-|--------------------------------------------|-----------------------------|-
-|--------------------------------------------|-----------------------------|-
-|--5/7--7-7-7-------5-5-5-5-5-5-5------------|--5/7--7-7-7-----------------|-
-|--5/7--7-7-7-------5-5-5-5-5-5-5------------|--5/7--7-7-7----5-5-5-5-5-5-5|-
-|--3/5--5-5-5-------3-3-3-3-3-3-3------------|--3/5--5-5-5----5-5-5-5-5-5-5|-
-|--------------------------------------------|----------------3-3-3-3-3-3-3|-
 Guitar Three     Riff 3                                                      

-|------------------10\-----------------------|------------10/--------------|-
-|-------/10----------------/10---------------|----/10------------/10-------|-
-|--------------------------------------------|-----------------------------|-
-|--------------------------------------------|-----------------------------|-
-|--------------------------------------------|-----------------------------|-
-|--------------------------------------------|-----------------------------|-
 Guitar Two  "La da, da,da"    with Riff 3                                    

-|--------------------------------------------|-----------------------------|-
-|--6-6-6-6-6-6-6-6-6-6-6-6-6-6---------------|--6-6-6-6-6-6-6-6-6-6-6-6-6-6|-
-|--x-x-x-x-x-x-x-x-x-x-x-x-x-x---------------|--x-x-x-x-x-x-x-x-x-x-x-x-x-x|-
-|--5-5-5-5-5-5-5-5-5-5-5-5-5-5---------------|--5-5-5-5-5-5-5-5-5-5-5-5-5-5|-
-|--------------------------------------------|-----------------------------|-
-|--------------------------------------------|-----------------------------|-
 Chorus Guitar 1  "I wait for you to take my"                                 
[ Tab from: http://www.guitartabs.cc/tabs/l/live/simple_creed_tab_ver_3.html ]
-|--------------------------------------|-----------------------------------|-
-|--------------------------------------|-----------------------------------|-
-|--------------------------------------|-----------------------------------|-
-|--------------------------------------|-----------------------------------|-
-|--3/5--5-5-5--3-3-3-3/5--5-5-5--3-3-3-|-3/5--5-5-5--3-3-3-3/5-5-5-5-3-3-3-|-
-|--1/3--3-3-3--1-1-1-1/3--3-3-3--1-1-1-|-1/3--3-3-3--1-1-1-1/3-3-3-3-1-1-1-|-
 Guitar 2   Riff 4                                                            

-|--------------------------------------|-----------------------------------|-
-|---8--7--5----------------------------|-5---------------------------------|-
-|-------------5--------5--7------------|-----7---5---4---------------------|-
-|--------------------------------------|-----------------------------------|-
-|--------------------------------------|-----------------------------------|-
-|--------------------------------------|-----------------------------------|-
 Guitar 1 "...hand"     play this twice "cause we need each other"            

-|--------------------------------------|-------------3---------------------|-
-|---3---------1------------------------|-3-----------3---------------------|-
-|---2---------2------------------------|-0-----------0---------------------|-
-|---0---------2------------------------|-x-----------0---------------------|-
-|-------------0------------------------|-3-----------x---------------------|-
-|--------------------------------------|-------------3---------------------|-
   Guitar 2     then play Intro again twice                                   

-|--------------------------------------|-----------------------------------|-
-|-6-6-6-6-6-6-6-6-6-6-6-6-6-6----------|-6-6-6-6-6-6-6-6-6-6-6-6-6-6-------|-
-|-x-x-x-x-x-x-x-x-x-x-x-x-x-x----------|-x-x-x-x-x-x-x-x-x-x-x-x-x-x-------|-
-|-5-5-5-5-5-5-5-5-5-5-5-5-5-5----------|-5-5-5-5-5-5-5-5-5-5-5-5-5-5-------|-
-|--------------------------------------|-----------------------------------|-
-|--------------------------------------|-----------------------------------|-
 Guitar one "i wait for you to take my hand"  (play along with Riff 4)        

-|--------------------------------------|-----------------------------------|-
-|--------------------------------------|-----------------------------------|-
-|--------------------------------------|-----------------------------------|-
-|--------------------------------------|-----------------------------------|-
-|--------------------------------------|-----------------------------------|-
-|--------------------------------------|-----------------------------------|-
 Bridge  "someone better take your microphone"                                

-|----------------------------12--12--13--15--13--12-|----------------------|-
-|-13--15\13--13--13--15--15-------------------------|----------------------|-
-|---------------------------------------------------|----------------------|-
-|---------------------------------------------------|----------------------|-
-|---------------------------------------------------|----------------------|-
-|---------------------------------------------------|----------------------|-
  Bridge Guitar 1 "Always with you"   with a backwards effect                 

-|--12--12-------------------------------12--12--13--15--13--12-------------|-
-|-----------15--15--13--13--13--15--15-------------------------------------|-
-|--------------------------------------------------------------------------|-
-|--------------------------------------------------------------------------|-
-|--------------------------------------------------------------------------|-
-|--------------------------------------------------------------------------|-
                                                                              

-|-----------------------------------|----------------------------------------
-|-----------------------------------|----------------------------------------
-|-----------------------------------|----------------------------------------
-|-----------------------------------|----------------------------------------
-|-3/5-5-5-x--3-3-3-3/5-5-5-x--3-3-3-|-3/5-5-5-x--3-3-3-3/5-5-5-x--3-3-3------
-|-1/3-3-3-x--1-1-1-1/3-3-3-x--1-1-1-|-1/3-3-3-x--1-1-1-1/3-3-3-x--1-1-1------
 Guitar 1 Chorus   It pretty much repeats it self from then on.               

Comments