Live - Simple Creed Chords & Tabs

 

Simple Creed Chords & Tabs

Live Chords & Tabs

Version: 1 Type: Tab 0 ratings
1 star 2 stars 3 stars 4 stars 5 stars
comments

Simple Creed Tab

#----------------------------------PLEASE NOTE--------------------------------#
#This file is the author's own work and represents their interpretation of the#
#song. You may only use this file for private study, scholarship, or research.#
#-----------------------------------------------------------------------------#
#-- File created with Instab - http://www.pconline.com/~smcarey/instab.html --#
#-----------------------------------------------------------------------------#

Author/Artist: Live
Title: Simple Creed
Album: V
Transcribed by: Jasper Bugel
Email: jasperisgitarist@metallica.com

I hope you'll love this song just as much as I do.
[ Tab from: http://www.guitartabs.cc/tabs/l/live/simple_creed_tab.html ]
---|------------------|---------------|---------------------------------------
---|------------------|---------------|---------------------------------------
---|--6-6--------4-4--|-6-6-----------|---------------------------------------
---|--6-6--------4-4--|-6-6--------4-4|---------------------------------------
---|--4-4--7p6p4-2-2--|-4-4--------4-4|---------------------------------------
---|------------------|------7p6p4-2-2|---------------------------------------
                                                                              

---|-------------|----------|-------------|-----------------------------------
---|-------------|----------|-------------|-----------------------------------
---|-11-11---x7--|-11-10-8--|-----8-------|-----------------------------------
---|-11-11-------|---------9|9-11---11-9-8|-----------------------------------
---|-9--9--------|----------|-------------|-----------------------------------
---|-------------|----------|-------------|-----------------------------------
                                                                              

Comments