Live - Simple Creed Chords & Tabs

 

Simple Creed Chords & Tabs

Live Chords & Tabs

Version: 1 Type: Bass Tab

Simple Creed Bass Tab

Band: Live
Song: Simple Creed
tabbed by: JMack

Tuning: 1/2 step down (Eb-Ab-Db-Gb)


Intro
G|-----------------------------------------------------|
D|-----------------------------------------------------|
A|-5-5-5----3-3-3----5-5-5-----------------------------|
E|----------------------------3-3-3--------------------|

Verse
G|-----------------------------------------------------|
D|-----------------3h5-5-5-3h5-0-----------------------|
A|--3h5-5-5-3h5-5----------------0-3h5-5-5-5--x-x-x-x--|
E|-----------------------------------------------------|
[ Tab from: http://www.guitartabs.cc/tabs/l/live/simple_creed_btab.html ]
Pre Chorus
G|-----------------------------------------------------|
D|-----------------------------------------------------|
A|--3/5-5-5-5---3-3-3-3-3-3-3--3/5-5-5-5---------------|
E|---------------------------------------3-3-3-3-3-3-3-|

Chorus
G|-----------------------------------------------------|
D|-----------------------------------------------------|
A|-----------------------------------------------------|
E|-1/3--3-3-3-1-1-1--1/3--3-3-3-1-1-1------------------|

G|-----------------------------------------------------|
D|-----------------------------------------------------|
A|--------------------------------3-3------------------|
E|-1/3--3-3-3-1-1-1--1/3--3-3-3-3----------------------|

G|-----------------------------------------------------|
D|-----------------------------------------------------|
A|-5-5--0-0--3-3---------------------------------------|
E|----------------3-3----------------------------------|