Live - Shit Towne Chords & Tabs

 

Shit Towne Chords & Tabs

Live Chords & Tabs

Version: 2 Type: Bass Tab 0 ratings
1 star 2 stars 3 stars 4 stars 5 stars
comments

Shit Towne Bass Tab

Artist: Live
Song: Shit Towne
Album: Selling the Drama
Tabbed by: Renato Gehringer
_______________________________________
 
G|---------------------------------------------------------------------------
D|---------------------------------------------------------------------------
A|------------1----------1----1------------------------1----------1----1---
E|-2-----4----------4----------------2---------4------------4---------------
 
G|-------------------------------------------------------------------------
D|-------------------------------------------------------------------------
A|--------------4-------------------4------------------4-------2-----------
E|--2----2---------------2---2--------------2--2---------------------------
 
 
G|----------------------------------------------------------------------
D|----------------------------------------------------------------------
A|-----------------------------------------------------------------------
E|-----2--2-----44------6-------88--99-10-----------------------------
 
 
G|---------------------------------------------------------------------------
D|---------------------------------------------------------------------------
A|---------------------------------------------------------------------------
E|----6--44----6---44-----2----4----6--44----6---44--------------------------

[ Tab from: http://www.guitartabs.cc/tabs/l/live/shit_towne_btab_ver_2.html ]
Comments