Live - Selling The Drama Chords & Tabs

 

Selling The Drama Chords & Tabs

Live Chords & Tabs

Version: 3 Type: Bass Tab

Selling The Drama Bass Tab

   
Bass Tab: Selling The Drama by Live taken from Throwing Cooper

Tabber: cyberbassist
email: cyberbassist@hotmail.com


-- * Half step down tuned * --

Intro:
                                             (before each verse)
G ---------------------------------------|---------------------------|
D ---------------------------------------|---------------------------|
A -----5-----5--6--7--77--55--2--0--2--3-|--2------------------------|
E --3-----3------------------------------|---------------------------|


Verse :

G --------------------------------------------------------------------------|
D --------------------------------------------------------------------------|
A -----------5--5--5-------5--5--6--7--77--55--2--0--2--3333-2222-0000------|
E --3--3----3-------3--3--3--------------------------------------------3333-|
[ Tab from: http://www.guitartabs.cc/tabs/l/live/selling_the_drama_btab_ver_3.html ]
    Pre Chorus
            D     C       B       A              2X
    G ----------------------------------------------|
    D ----------------------------------------------|
    A -----5-5-5-5-3-3-3-3-2-2-2-2-0-0-0-0----------|
    E ----------------------------------------------|


Chorus:
                                      4X
G --------------------------------------|-----|
D -*---------------------7-7-5-5------*-|-----|
A -*----2-2-0-0------------------7-7--*-|---3-|
E --0----------3-3-5--------------------|-----|


While guitar solo:

     x16   x16   x16  x16    x12
G-|-----|-----|-----|-----|-----|-----|
D-|-----|-----|-----|-----|-----|-----|
A-|--3--|--5--|--7--|--5--|--3--|--2--|
E-|-----|-----|-----|-----|-----|-----|


interlude (2:13)

G-------------------------------------------------------|
D-------------------------------------------------------|
A----5---5---5---5-6-7--77-55-2-0-2-3333-2222-0000------|
E--3---3---3---3-----------------------------------3333-|

EnJoY!
Any questions, comment, suggestion: cyberbassist@hotmail.com