Live - Secret Samadhi Chords & Tabs

 

Secret Samadhi Chords & Tabs

Live Chords & Tabs

Version: 1 Type: Tab 0 ratings
1 star 2 stars 3 stars 4 stars 5 stars
comments

Secret Samadhi Tab

   
Band  : Live (Tabbook)
Album : SECRET SAMADHI
Added By Mikhailo

All songs are tuned down half a step: Eb Ab Db Gb Bb Eb 



****Rattlesnake


Intro: distortion
----0-----------------0-----------0----------------0--------------------
----3-----------------3-----------3----------------3--------------------
----2-----------------2-----------2----------------2--------------------
----0-----------------0-----------0----------------0--------------------
----0-----------------0-----------0----------------0--------------------
----0-----------------0-----------0----------------0--------------------


Verses: Let's go hang out in a mall, or a morgue, a smorgasbord
-----0--------------------------0-----------0-------------0-------------
-----3--------------------------2-----------0-------------3-------------
-----2--------------------------2-----------0-------------0h2-----------
-----0--------------------------2-----------0-------------0-------------
-----0--------------------------0-----------2-------------0-------------
-----0--------------------------0-----------3-------------0-------------


Chourus: It's a crazy, crazy mixed up town, it's the rattlesnake I fear
------------------1------0------0-------0--------------0-----0-------0--
------------------3------2------0-------3--------------1-----0-------3--
------------------2------2------0-------2--------------0-----0-------2--
------------------0------2------0-------0--------------2-----0-------0--
------------------0------0------2-------0--------------3-----2-------0--
------------------0------0------3-------0--------------0-----3-------0--


Bridge: (ahhhh . . . .   ahhhhhh . . . .  ahhhhhh . . .  ahhhhhh . . .)
----1-------0------1------1-----0------1-----1------0-----1-----3-------
----3-------1------1------3-----1------3-----3------1-----1-----3-------
----3-------0------2------3-----0------2-----3------0-----2-----4-------
----3-------2------3------3-----2------0-----3------2-----3-----5-------
----1-------3------3------1-----3------0-----1------3-----3-----5-------
----1-------0------1------1-----0------0-----1------0-----1-----3-------


Then play solo over chourus


****Lakini's Juice

Drop to D tuning: Db Ab Db Gb Bb Eb

Intro: Distortion
------------------------------------------------------------------------
------------------------------------------------------------------------
-----7----6----x--x----7---6----x---x----7---6---x---x--7-6-7-4-7---6---
-----7----6----x--x----7---6----x---x----7---6---x---x--7-6-7-4-7---6---
-----0----4----x--x----0---4----x---x----0---4---x---x--0-4-0-2-0---4---
-----0----4----x--x----0---4----x---x----0---4---x---x--0-4-0-2-0---4---

Pre-Chourus: Slow . . . Down . . . We're too afraid . . .
------------------------------------------------------------------------
------------------------------------------------------------------------
-------------------------------------6----6--6-6----7-------------------
------------6----6----6-6---7-------------------------------------------
------------------------------------------------------------------------
------------------------------------------------------------------------


Chourus:  Let me ride!!!!!!                    Let me ride!!!!!  
-------------------0----0-------8----8-----0----0-----5-----5-----------
-------------------0----0-------8----8-----0----0-----5-----5-----------
-------------------0----0-------8----8-----0----0-----5-----5-----------
-------------------0----0-------8----8-----0----0-----5-----5-----------
-------------------0----0-------8----8-----0----0-----5-----5-----------
-------------------0----0-------8----8-----0----0-----5-----5-----------


Interlude thingy                                             end on this
--------------------------------------------------------------------0---
--------------------------------------------------------------------0---
----------0------------5-----------------0------------8-------------0---
-------0-----0------5-----5-----------0-----0-------8----8----------0---
-----------------------------5-----------------------------8--------0---
----0------------5---------------0---------------8------------------0---


****Graze


Verses: People should not be afraid, we came to the earth to graze
---2----------------------------0-----2-------------------------0-------
---2----------------------------0-----2-------------------------0-------
---2----------------------------0-----2-------------------------0-------
---4----------------------------2-----4-------------------------2-------
---4----------------------------2-----4-------------------------2-------
---2----------------------------0-----2-------------------------0-------


The little thingy as the drums start
------------------------------------2---------------0-------------------
------------------------------------2---------------0-------------------
------------------------------------2---------------0-------------------
------------------------------------4---------------2-------------------
---0h2----0-------------------------4---------------2-------------------
----------------2-------------------2---------------0-------------------

Chourus:                           In the early morning, cut her down...
------------------------------------------------------------------------
------------------------------------------------------------------------
-------------2----2------------7----------------------------------------
-------------2----2---3--3-----7----------------------------------------
-------------0----0---3--3-----5----------------------------------------
--12/-----------------1--1----------------------------------------------

    ...We came to the earth to graze...Now there's no time to live...
---------------------------------2------------------------------2-------
---------------------------------2------------------------------3-------
-----------2---------------------2-------2----------------------2-------
-----------2---------------5-----4-------2--------------5---------------
-----------0---------------5-----4-------0--------------5---------------
---------------------------3-----2----------------------3---------------

    ...Live~~~~~~~~~~~~~~~~~~~~~~~~~~~~~~~~~~~~~~~
---------2--------------------------------------------------------------
---------3--------------------------------------------------------------
---------4--------------------------------------------------------------
---------4--------------------------------------------------------------
---------2--------------------------------------------------------------
---------2--------------------------------------------------------------

Then play solo.


****Century

Verses:Everybody's here, puke stinks like beer, this could be a city...
---------0------------------2---------------0----------------------2----
---------0------------------2---------------0----------------------2----
---------1------------------3---------------1----------------------3----
---------2------------------4---------------2----------------------4----
---------2------------------4---------------2----------------------4----
---------0------------------2---------------0----------------------2----

Chourus:  this puke stinks like beer and everybody's here
-----------2----------------------3-------------------------------------
-----------2----------------------3-------------------------------------
-----------3----------------------4-------------------------------------
-----------4----------------------5-------------------------------------
-----------4----------------------5-------------------------------------
-----------2----------------------3-------------------------------------

So come on, come on, come on      let's lay waste to this century
------3-----------------2------------3--------2---------------0---------
------3-----------------2------------3--------2---------------0---------
------4-----------------3------------4--------3---------------1---------
------5-----------------4------------5--------4---------------2---------
------5-----------------4------------5--------4---------------2---------
------3-----------------2------------3--------2---------------0---------

                   come on, come on, come on   Return to nothing
---3-----2-----0-----3------------------2----------3---------0----------
---3-----2-----0-----3------------------2----------3---------0----------
---4-----3-----1-----4------------------3----------4---------1----------
---5-----4-----2-----5------------------4----------5---------2----------
---5-----4-----2-----5------------------4----------5---------2----------
---3-----2-----0-----3------------------2----------3---------0----------

Bridge: On the edge of a kiss smack on the lips 
--2-----------------------------3--------------------------0------------
--2-----------------------------3--------------------------2------------
--3-----------------------------4--------------------------2------------
--4-----------------------------5--------------------------2------------
--4-----------------------------5--------------------------0------------
--2-----------------------------3--------------------------0------------

    dangled with a tongue
-----------------------------------------2------------------------------
-----------------------------------------3------------------------------
-----------------------------------------2------------------------------
-----------------------------------------0------------------------------
-----------------------------------------0------------------------------
-----------------------------------------0------------------------------

        On the edge of a peace that can't stond low
------2--------------------------3---------------------------0----------
------2--------------------------3---------------------------2----------
------3--------------------------4---------------------------2----------
------4--------------------------5---------------------------2----------
------4--------------------------5---------------------------0----------
------2--------------------------3---------------------------0----------

     and won't stand tall
------------------------------------------2-----------------------------
------------------------------------------3-----------------------------
------------------------------------------2-----------------------------
------------------------------------------0-----------------------------
------------------------------------------0-----------------------------
------------------------------------------0-----------------------------


****Ghost


Intro: Just strum these chords
-----------0----0---0----0----3---3---3---0----0---0----3----3----3-----
-----------1----1---1----1----1---1---1---1----1---1----1----1----1-----
-----------2----2---2----2----2---2---2---2----2---2----2----2----2-----
-----------2----2---2----2----2---2---2---2----2---2----2----2----2-----
------------------------------------------------------------------------
------------------------------------------------------------------------

Chourus:Where did I go wrong?                I never needed this before 
---1---1---1---1---1----3---3---3---3---1---1---1---1---3---3---3---3---
---1---1---1---1---1----3---3---3---3---1---1---1---1---3---3---3---3---
---2---2---2---2---2----4---4---4---4---2---2---2---2---4---4---4---4---
---3---3---3---3---3----5---5---5---5---3---3---3---3---5---5---5---5---
---3---3---3---3---3----5---5---5---5---3---3---3---3---5---5---5---5---
---1---1---1---1---1----3---3---3---3---1---1---1---1---3---3---3---3---

The little solo thingy after the second or third chourus
------------------------------------------------------------------------
--10--12--10/8--10--8/6--8--6--5--5--6--5~~~~~~~~~~~~~~~~~~~~~~~~~~~~~~-
------------------------------------------------------------------------
------------------------------------------------------------------------
------------------------------------------------------------------------
------------------------------------------------------------------------

------------------------------------------------------------------------
--10--12--10/8--10--8/6--8--6--5--5--6--5~~~~---0~~~~~~~~~~~~~~~~~~~~~~-
------------------------------------------------------------------------
------------------------------------------------------------------------
------------------------------------------------------------------------
------------------------------------------------------------------------


****Unsheathed


Intro and verses:When you bend the 8th fret, bend it 1/2 a step
------------------------------------------------------------------------
------------------------------------------------------------------------
------------------------------------------------------------------------
-----9b--9---7---------9b---9---7---9----6h7p6-7------------------------
------------------7-----------------------------------------------------
------------------------------------------------------------------------

Then, when it gets really heavy                  
---2---2-------2---2------2---2------2----------0-----------------------
---2---2-------2---2------2---2------2----------0-----------------------
---4---4-------4---4------4---4------4----------2-----------------------
---4---4-------4---4------4---4------4----------2-----------------------
---2---2-------2---2------2---2------2----------0-----------------------
---2---2-------2---2------2---2------2----------0-----------------------

Chourus: Free love is a world I can't linger too long in
----------5-----6---------5--------------6---------------8--------------
----------5-----6---------5--------------6---------------8--------------
----------5-----6---------5--------------6---------------8--------------
----------7-----6---------7--------------6--------------10--------------
----------7-----8---------7--------------8--------------10--------------
----------5-----6---------5--------------6---------------8--------------


****Insomnia and the Hole in the Universe


Intro:
----1---------------0----1--------------3---0-----0-----0--0----0-------
----1----3-----1h3-------1----3----1h3------------1-----1--1----1-------
----2----2---------------2----2-------------------0-----0--0----0-------
----3----0---------------3----0-------------------2-----2--2----2-------
----3----0---------------3----0-------------------3-----3--3----3-------
----1--------------------1------------------------0-----0--0----0-------

Verses:My brother kicked his feet to sleep...when I sang the dirge song
---1----------------------------------3-3------0------------------------
---1-----------------3----------------3-3------1---------------3--------
---2-----------------2----------------2-2------0---------------2--------
---3-----------------0----------------0-0------2---------------0--------
---3-----------------0-------------------------3---------------0--------
---1-------------------------------------------0------------------------

Chourus:Angel, don't you have some bagels in my oven...
--------1--1-----0-----0----0--------------0----------------------------
--------3--3-----2-----2----1--------------0----------------------------
--------2--2-----2-----2----0--------------0----------------------------
--------0--0-----2-----2----2--------------0----------------------------
--------0--0-----0-----0----3--------------2----------------------------
--------0--0-----0-----0----0--------------3----------------------------
[ Tab from: http://www.guitartabs.cc/tabs/l/live/secret_samadhi_tab.html ]
Bridge: Anal, tight-a**ed soldier with that dogged heart,
----1-------------------------0----------------------1------------------
----2-------------------------1----------------------1------------------
----3-------------------------2----------------------2------------------
----3-------------------------2----------------------3------------------
----1-------------------------0----------------------3------------------
----1-------------------------0----------------------1------------------

          put down your gun
---1----------------------3---------------------------------------------
---1----------------------3---------------------------------------------
---2----------------------4---------------------------------------------
---3----------------------5---------------------------------------------
---3----------------------5---------------------------------------------
---1----------------------3---------------------------------------------

Solo:                   
----0-----0---------0-----3--0----0-----------0--------3b---------------
-------3-------1h3-----3----------1------1h3-----1--3-------------------
----------------------------------0-------------------------------------
----------------------------------2-------------------------------------
----------------------------------3-------------------------------------
----------------------------------0-------------------------------------

----------0-----------3b----------0-----------3b---0---0---0------------
-----1h3------1---3----------1h3-------1---3-------1---1---1----3-------
---------------------------------------------------0---0---0----2-------
---------------------------------------------------2---2---2----0-------
---------------------------------------------------3---3---3----0-------
---------------------------------------------------0---0---0------------


****Turn My Head


Intro:
----------------------0-----------------3-0---------0-----------1-------
-------------1----------1--------1-0-1----------------0-----------1-----
--------------------------0-----------------------------0-----------0---
--------2-----------2-----------2-----------------2-----------3---------
-----3-----------3------------0-----------------2-----------3-----------
----------------------------------------------0-----------1-------------

------------------0-------------------3-0----------0-----------1--------
------1------1h3-----3--1-------1-0-1----------------0------------1-----
-------------------------------------------------------0------------0---
----2-----------------------2-------------------2------------3----------
--3------3----------------0--------------------2------------3-----------
---------------------------------------------0------------1-------------
       
Verse:Anyone,             caught in your mystery. . . .
---0----------0---------0--------------------1--------------------------
---1----------0---------0--------------------1--------------------------
---0----------0---------1--------------------2--------------------------
---2----------0---------2--------------------3--------------------------
---3----------2---------2--------------------3--------------------------
---0----------3---------0--------------------1--------------------------
                                       
      . . . . drunk on you juices       Fm
----------------------------1----------1-1-1----------------------------
----------------------------1----------1-1-1----------------------------
----------------------------2----------1-1-1----------------------------
----------------------------3----------3-3-3----------------------------
----------------------------3----------3-3-3----------------------------
----------------------------1----------1-1-1----------------------------

              Turn my head . . .           Turn my head . . .
---0-----------------------------0--0--0--------------------------------
---1-----------------------------1--0--1--------------------------------
---0-----------------------------0--0--2--------------------------------
---2-----------------------------2--0--2--------------------------------
---3-----------------------------3--2--0--------------------------------
---0-----------------------------0--3--0--------------------------------

        It's aimed at you . . .  
----0-------------------1-----------0-----------------------------------
----0-------------------1-----------1----1/3-3-1-0-1--------------------
----0-------------------2-----------0-----------------------------------
----0-------------------3-----------2-----------------------------------
----2-------------------3-----------3-----------------------------------
----3-------------------1-----------0-----------------------------------

Bridge:Oh, We came to love you . . . just a name, just a name    
----0-------------------1--------------3--------------------------------
----0-------------------1--------------3--------------------------------
----1-------------------2--------------4--------------------------------
----2-------------------3--------------5--------------------------------
----2-------------------3--------------5--------------------------------
----0-------------------1--------------3--------------------------------

Solo:                                                       
------------------------------------------------------------------------
---8h10-----10-8h10-----8h10-10---8h10----------------6-6-6-4-4-4-7-7-7-  
-------9------------9------------------9----8h10-8h10-5-5-5-5-5-5-5-6-6-
------------------------------------------------9-----------------------
------------------------------------------------------------------------
------------------------------------------------------------------------


------------------8h10-8----------8---------------------------------0---
----8-10-11-8-10---------10--8h10------8h10---11--10--8-------------1---
---------------------------------------------------------9--7-------0---
---------------------------------------------------------------9----2---
--------------------------------------------------------------------3---
--------------------------------------------------------------------0---


****Heropsychodreamer


Intro: Distortion
-----5---5--5---5-5---5--5--5--5---1--1---1---1--0--0--0---0------------
-----6---6--6---6-6---5--5--5--5---1--1---1---1--0--0--0---0------------
-----7---7--7---7-7---6--6--6--6---2--2---2---2--1--1--1---1------------
-----7---7--7---7-7---7--7--7--7---3--3---3---3--2--2--2---2------------
-----5---5--5---5-5---7--7--7--7---3--3---3---3--2--2--2---2------------
-----5---5--5---5-5---5--5--5--5---1--1---1---1--0--0--0---0------------

(Bass plays for little bit)

Verses:I'll kill you in my dreams. I turn the other cheek during the day
---5------------------5----------0---------------1-------------------5--
---5------------------6----------0---------------1-------------------5--
---6------------------7----------1---------------2-------------------6--
---7------------------7----------2---------------3-------------------7--
---7------------------5----------2---------------3-------------------7--
---5------------------5----------0---------------1-------------------5--

       I'll kill you all
--------------5----------------0-------------1--------------------------
--------------6----------------0-------------1--------------------------
--------------7----------------1-------------2--------------------------
--------------7----------------2-------------3--------------------------
--------------5----------------2-------------3--------------------------
--------------5----------------0-------------1--------------------------

Chourus: Same as the intro

The end of the song and then while Ed's saying, "They called you queer!"
----5---5---5---5---5---5---5---5---5---5---5---5---5---5---5---5-------
----5---5---5---5---6---6---6---6---5---5---5---5---6---6---6---6-------
----6---6---6---6---7---7---7---7---6---6---6---6---7---7---7---7-------
----7---7---7---7---7---7---7---7---7---7---7---7---7---7---7---7-------
----7---7---7---7---5---5---5---5---7---7---7---7---5---5---5---5-------
----5---5---5---5---5---5---5---5---5---5---5---5---5---5---5---5-------

End on:
----5------
----5------
----6------
----7------
----7------
----5------


****Freaks


Intro and verses:
------------------------------------------------------------------------
------------------------------------------------------------------------
-----------------------------14------------------------------12---------
------------------------14------14-------------14----------------12-----
--------------------12---------------------12------------11-------------
---------------------------------------13-------------12----------------

Pre-Chourus:  without the usual cost of labor
--------------------------------------------------13--------------------
--------------------------------------------------13--------------------
----------------------------10--------------------10--------------------
----------------------------10--------------------10--------------------
-----------------------------9---------------------9--------------------
----------------------------10--------------------10--------------------

Chourus:   Will you can her a freak!   Will you call them freaks!
---------------------------------0---------------------------0----------
---------------------------------0---------------------------0----------
---------------------------------1---------------------------1----------
---------------------------------2---------------------------2----------
---------------------------------2---------------------------2----------
---------------------------------0---------------------------0----------

        Will you call them gods!        
---0---------------0----------------------------------------------------
---0---------------0----------------------------------------------------
---2---------------4----------------------------------------------------
---2---------------4-------------------6b--6---4---6--------------------
---0---------------2----------------------------------------------------
---0---------------0----------------------------------------------------

Solo:
------------------------------------------------------------------------
------------------------------------------5-----------------------------
------------------------------4-4-4-----------4-------------------------
-----6b---6---4---6------6------------6---------------------------------
------------------------------------------------------------------------
------------------------------------------------------------------------


****Merica


Intro and verses:
------------------------------------------------------------------------
------------------------------------------------------------------------
------------------------------------------------------------------------
---------------------5---5----7----5---------5-------5----7------3------
-------------------------------------------------5----------------------
---0--5h7---0--0--------------------------------------------------------

Chourus:My head's in the clouds
----------------------------------1--1--1-/3--3--3-/5--5--5-------------
----------------------------------1--1--1-/3--3--3-/5--5--5-------------
----------------------------------2--2--2-/4--4--4-/6--6--6-------------
----------------------------------3--3--3-/5--5--5-/7--7--7-------------
----------------------------------3--3--3-/5--5--5-/7--7--7-------------
----------------------------------1--1--1-/3--3--3-/5--5--5-------------

the priests were all sto - oned sto - oned sto - oned
----------------------1------3----1------3--1------3---------5----------
----------------------1------3----1------3--1------3---------5----------
----------------------2------4----2------4--2------4---------6----------
----------------------3------5----3------5--3------5---------7----------
----------------------3------5----3------5--3------5---------7----------
----------------------1------3----1------3--1------3---------5----------

bridge:California was on my mind      and love was a game that we played
------------------------------------------------------------------------
------------------------------------------------------------------------
------------------------------------------------------------------------
------------------------------3-3-3-5-5-5-3-3-3-3-3-3-3-3-3-3-3-3-5-5-5-
------------------------------3-3-3-5-5-5-3-3-3-3-3-3-3-3-3-3-3-3-5-5-5-
------------------------------1-1-1-3-3-3-1-1-1-1-1-1-1-1-1-1-1-1-3-3-3-


****Gas Hed Goes West


Intro:
------3--------2--------3--------0--------------------------------------
------0--------3--------0--------2--------------------------------------
------0--------4--------0--------2--------------------------------------
------0--------4--------0--------2--------------------------------------
------2--------2--------2--------0--------------------------------------
------3--------2--------3--------0--------------------------------------

Verse:If I was half alive         and you were dead
--3-------------------2-----------------0---------2---------------------
--0-------------------3-----------------2---------3---------------------
--0-------------------4-----------------2---------4---------------------
--0-------------------4-----------------2---------4---------------------
--2-------------------2-----------------0---------2---------------------
--3-------------------2-----------------0---------2---------------------

           Subsisting on           that same old bread
---3-------------------2----------------------------2-------------------
---0-------------------3----------------------------3-------------------
---0-------------------2----------------------------4-------------------
---0-------------------0----------------------------4-------------------
---2-------------------0----------------------------2-------------------
---3-------------------0----------------------------2-------------------

Chourus:                   it's the the memory that hides...
------------2----2----2------------------------------------0---0---0----
------------4----4----4------------------------------------0---0---0----
------------4----4----4------------------------------------1---1---1----
------------4----4----4------------------------------------2---2---2----
------------2----2----2------------------------------------2---2---2----
------------2----2----2------------------------------------0---0---0----

     Our Gas Hed marches on...
------0---2---3---2---3---0---------------------------------------------
------0---2---3---2---3---0---------------------------------------------
------1---3---4---3---4---1---------------------------------------------
------2---4---5---4---5---2---------------------------------------------
------2---4---5---4---5---2---------------------------------------------
------0---2---3---3---3---0---------------------------------------------

Solo:
------------------------------------------------------------------------
------------------------------------------------------------------------
----------0------------0-------------0-------------0--------------------
--------------0-----------0-------------0--------------0----------------
-------2------------2-----------2--------------2------------------------
----3------------3-----------0--------------0---------------------------

------------------------------------------------------------------------
-------------0-----------0-----------0-----------0----------------------
----------------0-----------0-----------0-----------0-------------------
---------2-----------2------------2-----------2-------------------------
-----3------------3------------0-----------0----------------------------
------------------------------------------------------------------------


That's all!!! Just remember - Live is the greatest band ever!

Enjoy  :-)

E-mail me if you have any problems:  Twister217@aol.com
Comments