Live - Rattlesnake Chords & Tabs

 

Rattlesnake Chords & Tabs

Live Chords & Tabs

Version: 2 Type: Tab 0 ratings
1 star 2 stars 3 stars 4 stars 5 stars
comments

Rattlesnake Tab

   
tuned down half a step: Eb Ab Db Gb Bb Eb

****Rattlesnake
by live

Intro: distortion
----0-----------------0-----------0----------------0--------------------|
----3-----------------3-----------3----------------3--------------------|
----2-----------------2-----------2----------------2--------------------|
----0-----------------0-----------0----------------0--------------------|
----0-----------------0-----------0----------------0--------------------|
----0-----------------0-----------0----------------0--------------------|

[ Tab from: http://www.guitartabs.cc/tabs/l/live/rattlesnake_tab_ver_2.html ]
Verses: Let's go hang out in a mall, or a morgue, a smorgasbord
-----0--------------------------0-----------0-------------0-------------|
-----3--------------------------2-----------0-------------3-------------|
-----2--------------------------2-----------0-------------0h2-----------|
-----0--------------------------2-----------0-------------0-------------|
-----0--------------------------0-----------2-------------0-------------|
-----0--------------------------0-----------3-------------0-------------|


Chourus: It's a crazy, crazy mixed up town, it's the rattlesnake I fear
------------------1------0------0-------0--------------0-----0-------0--|
------------------3------2------0-------3--------------1-----0-------3--|
------------------2------2------0-------2--------------0-----0-------2--|
------------------0------2------0-------0--------------2-----0-------0--|
------------------0------0------2-------0--------------3-----2-------0--|
------------------0------0------3-------0--------------0-----3-------0--|


Bridge: (ahhhh . . . .   ahhhhhh . . . .  ahhhhhh . . .  ahhhhhh . . .)
----1-------0------1------1-----0------1-----1------0-----1-----3-------|
----3-------1------1------3-----1------3-----3------1-----1-----3-------|
----3-------0------2------3-----0------2-----3------0-----2-----4-------|
----3-------2------3------3-----2------0-----3------2-----3-----5-------|
----1-------3------3------1-----3------0-----1------3-----3-----5-------|
----1-------0------1------1-----0------0-----1------0-----1-----3-------|


Then play solo over chourus
Comments