Live - Rattlesnake Chords & Tabs

 

Rattlesnake Chords & Tabs

Live Chords & Tabs

Version: 1 Type: Bass Tab 0 ratings
1 star 2 stars 3 stars 4 stars 5 stars
comments

Rattlesnake Bass Tab

Live - Rattlesnake
letostak@ix.netcom.com (Judy Letostak)
Metal Edge BBS (619)423-4970
1:202/1109 (FidoNet)
http://www.netcom.com/~letostak/musicshp.html

Tune down 1/2 step
3x==================
---7----\5--5-----7-----------------------------
---7----\5--5-----7-----------------------------
---5----\3--3-----5-----------------------------
------------------------------------------------

Verse

------------------------------------------------
------------------------------------------------
--5--------5-----------------------5----5\------
------------------5-----\3----/5----------------


------------------------------------------------
------------------------------------------------
-----------5-----5-----h3h5--------3------------
-5---3-------------------------5---------5/7----


------------------------------7-----------------
------------------------------7-----------------
-5-----5-------------------5---------0--3-------
-------------5----3---5/7-----------------------

chorus

------------------------------------------------
------------------------------------------------
--5----5-------------------------------5--------
----------0--5---5----4----3---3---h5-----------


---------------------------------7--------------
---------------------------------7--------------
--3----3---------------------5--------0---3-----
------------0--3--3---5/7-----------------------


------------------------------------------------
------------------------------------------------
-5---5--------------------------5----5--5--4----3
---------0--5---5--4---3---3h5------------------

                        2x================
------------------------7----\5--5------7-------
------------------------7----\5--5------5-------
--3---------------------5----\3--3------5-------
------0--3--3--5/7------------------------------

2nd verse

------------------------------------------7-----
------------------------------------------------
--5-----5/7-------------------------5-----------
--------------5----5/7--x--3----57--------------

[ Tab from: http://www.guitartabs.cc/tabs/l/live/rattlesnake_btab.html ]
------------------------------------------------
-----------------7------------------5-----------
--5---5-----------------------------------------
------------5--------5/7---x----3-------5/7-----


----7-------------------------------------------
---------------------------------7----------5---
-5------0--3--5------------0--------------------
-------------------5h7---------------5\3--------


------------7-
------------7-
--------5-----
--5/7---------

Play Chorus

Interlude

------------------------------------------------
------------------------------------------------
------------------------------------------------
--6----8--8---1--1---3----3--3--5---6----8--8---


------------------------------------------------
-----12/14\12----\7-----------------------------
------------------------------------------------
-10------------------5---6---8----\1--1--3------


------------------------------------------------
------------------------------------------------
--------------------------------5/7----6--------
-3-3-3-3---3--3--3--3-3-3--5/7------------------


------------------------------------------------
------------------------------------------------
-5---5---------------------5--0--5--4----3--3---
---------0--5--5---3--3h5-----------------------


------------------------------------------------
------------------------------------------------
----------------5-------------------------------
-0--3--3---5/7----------------------------------
Play intro 4x
end


Metal Edge BBS (619)423-4970  (San Diego, CA  USA)
Over 10,000 Guitar Tabs, pictures, construction docs, lessons,
interviews, sound files, lyrics, programs.
Riot Member and Distro, Warlock WHQ MetalNet WHQ
http://www.netcom.com/~letostak/musicshp.html
===========================================================
h = hammeron                          ps = pick scrape
p = pulloff                           % = repeat phrase
~ = vibrato                           letostak@ix.netcom.com
b = bend                              + natural harmonic
/\ = Slide
* = Artificial Harmonic
x = ghost note
tr = trill
===========================================================




Comments