Live - Pillar Of Davidson Chords & Tabs

 

Pillar Of Davidson Chords & Tabs

Live Chords & Tabs

Version: 1 Type: Bass Tab 0 ratings
1 star 2 stars 3 stars 4 stars 5 stars
comments

Pillar Of Davidson Bass Tab

Pillar of Davidson by Live
Transcribed by Jon Ritts (bigearl192000@yahoo.com)

Patrick likes to improvise a lot, so there are a few fills that he uses to
slightly change some riffs in the song that I didn't include. What can I say,
I'm lazy :-P
Anyway, if you have any suggestions/questions feel free to write to me. Also,
this the first tab that I've submitted, so don't be too rough on me if I
screwed something up. Thanks & enjoy!

Tuned down 1/2 step
                           ____________________ ______________
Intro:                    |1-3 ending          |4 ending
Gb|----------|------------|---------|----------|------|-------||
Db|o-----7---|-10-----5h7-|-----7---|-10----7-o|------|-------||
Ab|o-0-0---0-|----0-0-----|-0-0---0-|----0----o|-0----|-0-2-3-||
Eb|----------|------------|---------|----------|------|-------||

Verse:(0:19)
Db|-----7---|-10-----7-|-----7---|-10-----5h7-|-----7---|-10-----7-|
Ab|-0-0---0-|----0-0---|-0-0---0-|----0-0-----|-0-0---0-|----0-0---|
Eb|---------|----------|---------|------------|---------|----------|

Db|-----7---|-10---7-|-------|-------|-------|-------||
Ab|-0-0---0-|----0---|-------|-------|-------|-0-2-3-||
Eb|---------|--------|-7-----|-7-----|-3-----|-------||
(Play four times on first verse)


Pre-chorus 1: (1:19)
Ab|------|------|------|-2-5-2-|------|------|------|-2-2-5-2-0---|
Eb|-0----|-2----|-3----|-------|-0----|-2----|-3----|-----------3-|

Ab|------|------|------|-0-2-3-||
Eb|-0----|-2----|-3----|-------||

Back to intro (Take 1st & 2nd endings only) (1:34)
Verse twice (1:44)

Pre-chorus 2: (2:14)
Ab|------|------|------|-2-5-2-|------|------|------|-2-2-5-2-0---|
Eb|-0----|-2----|-3----|-------|-0----|-2----|-3----|-----------3-|
[ Tab from: http://www.guitartabs.cc/tabs/l/live/pillar_of_davidson_btab.html ]
Ab|------|------|------|-------|--------|--------|--------|--------||
Eb|-0----|-2----|-3----|-3-5-7-|-5--5-5-|-5--5-5-|-5--5-5-|-5--5-5-||

Chorus A: (2:34)
Ab|-5--5-5-|-5--2-0-|--------|------------|
Eb|--------|--------|-3--3-3-|-3--3-3-3-3-|

Ab|--------|------------|--------|------------||
Eb|-5--5-5-|-5--5-5-5-5-|-5--5-5-|-5--5-5-5-5-||
(play twice)

Chorus B1: (2:53)
Ab|--------|----------2-|--------|------------|--------|----------2-|
Eb|-3--3-3-|-3--3-3-3---|-5--5-5-|-5--5-5-5-4-|-3--3-3-|-3--3-3-3---|

Ab|--------|------------|--------|------------|------|-0-2-3-||
Eb|-5--5-5-|-5--5-5-5-4-|-3--3-3-|-3--3-3-3-2-|-5----|-------||

Intro riff (1st & 2nd endings only) (3:08)
Verse twice (3:18)
Pre-chorus 2 (3:48)
Chorus A twice (4:08)

Chorus B2: (4:27)
Ab|--------|----------2-|--------|------------|--------|----------2-|
Eb|-3--3-3-|-3--3-3-3---|-5--5-5-|-5--5-5-5-4-|-3--3-3-|-3--3-3-3---|

Ab|--------|------------|--------|------------|--------|------------|
Eb|-5--5-5-|-5--5-5-5-4-|-3--3-3-|-3--3-3-3-2-|-5--5-5-|-5--5-5-5-4-|

Ab|-3--3-3-|-3------|--------|----0-2-|-3--3-3-|-3------|
Eb|--------|----0-2-|-3--3-3-|-3------|--------|----0-2-|

Ab|--------|-0-2-3-||
Eb|-3--3-3-|-------||

Intro (yet again, only 1st & 2nd endings) (4:51)
Pre-chorus 2 (5:00)
Chorus A twice (5:20)

Chorus B3: (5:39)
Ab|--------|----------2-|--------|------------|--------|----------2-|
Eb|-3--3-3-|-3--3-3-3---|-5--5-5-|-5--5-5-5-4-|-3--3-3-|-3--3-3-3---|

Ab|--------|------------|--------|------------|--------|------------|
Eb|-5--5-5-|-5--5-5-5-4-|-3--3-3-|-3--3-3-3-2-|-5--5-5-|-5--5-5-5-4-|

Ab|-3--3-3-|-3------|--------|----0-2-||
Eb|--------|----0-2-|-3--3-3-|-3------||

Chorus A four times (5:58)

Ending:
Ab|-5----||
Eb|------||

Comments